Oops, an error
Loading. Please wait.

Anywhere With You tab

version 1
version 1

Whole song

2,982 views 9 this week
no commentswrite comment
1 2 3 4 5
x 4
add to favorites
×
Save as Personal and add changes to this tab that will be seen only by you. Learn more ›
×
You can save this tab as Personal to edit and correct it or add notes. All changes will be seen only by you. Learn more »
launch autoscroll
font size
0
reset
how to read this tab
guitar tuner
edit
Autoscroll
slow
fast
+/-
esc
set tempo
stop
Author
Difficulty
intermediate
First tab so corrections/critics welcome.  Couldn't find a tab for this song so I 
gave it a go myself.
Standard Tuning
Key: F  (Chords F, Bb, Dm, C)
This tab is mostly of the lead guitar intro, chorus caps, and solo.

h- hammer on
p- pull off
s-slide to fret
b-bend string to different note
In this tab when I have (13) written down you are actually playing the b string, 11th 
fret, and bending it up to the sound of the note on the 13th fret.

Intro
e--------------------------------------------------------13-------------------|
b------------------11b(13)-(13)b11-10---------10-11b(13)---(13)b11-10-11b(13--|
g-7~7~-----------------------------------10h12--------------------------------|
d-----8-8p7-10p7--------------------------------------------------------------|
a----------------8------------------------------------------------------------|
E-----------------------------------------------------------------------------|

e-----------------------------------------12s13-12--9s10----------------------|
b--------10-11b(13)-(13)b11-10--------10-----------------13-------------------|
g--10h12-------------------------10h12----------------------------------------|
d-----------------------------------------------------------------------------|
a-----------------------------------------------------------------------------|
E-----------------------------------------------------------------------------|



Chorus Tags
e-----------------------------------------13---------------------------|
b---11b(13)-(13)b11-10---------10--11b(13)---(13)b11-10-11b(13)--------|
g------------------------10h12-----------------------------------------|
d----------------------------------------------------------------------|
a----------------------------------------------------------------------|
E----------------------------------------------------------------------|

e-------------------------------------------12s13-12--9s10--------------------|
b--------10--11b(13)-(13)b11-10--------10-------------------13----------------|
g--10h12-------------------------10h12----------------------------------------|
d-----------------------------------------------------------------------------|
a-----------------------------------------------------------------------------|
E-----------------------------------------------------------------------------|


Solo
e-------------------------------13--------------------------------------------|
b--10~10~-----------10--11b(13)----(13)b11-10-11b(13)--10-11-13-10-11-13------|
g----------10--10h12----------------------------------------------------------|
d-----------------------------------------------------------------------------|
a-----------------------------------------------------------------------------|
E-----------------------------------------------------------------------------|

e-----10-12-13p12-13-15-b(17)-15p13p12-13------------------------------------|
b--13-------------------------------------13p11p10-11------------------------|
g------------------------------------------------------12p10p9-10------------|
d----------------------------------------------------------------------------|
a----------------------------------------------------------------------------|
E----------------------------------------------------------------------------|

Outro
e-----------------------------------------13---------------------------|
b---11b(13)-(13)b11-10---------10--11b(13)---(13)b11-10-11b(13)--------|
g------------------------10h12-----------------------------------------|
d----------------------------------------------------------------------|
a----------------------------------------------------------------------|
E----------------------------------------------------------------------|

e-----------------------------------------------------------------------------|
b--------10--11b(13)-(13)b11-10--------10-------------------------------------|
g--10h12-------------------------10h12--------7~7~----------------------------|
d--------------------------------------------------8-8p7-10p7-----------------|
a-------------------------------------------------------------8---------------|
E-----------------------------------------------------------------------------|

            
            
Suggest correction
Creating personal tab
Creating personal tab
You can edit any tab online and save it as your Personal.

You can edit, replace or remove any tab part or add personal notes – all changes will be seen only by you.

Personal tabs can be accessed anytime from any device, even offline.
Learn more »
comments
print report bad tab
guest
You may want to rate the tab now too:
select rating
Wanna post a correction for this tab? Suggest correction