Oops, an error
Loading. Please wait.

Eight Second Ride tab

version 1
version 1

Whole song

Interactive

11,192 views 24 this week
no commentswrite comment
1 2 3 4 5
x 4
add to favorites
×
Save as Personal and add changes to this tab that will be seen only by you. Learn more ›
×
You can save this tab as Personal to edit and correct it or add notes. All changes will be seen only by you. Learn more »
launch autoscroll
font size
0
reset
how to read this tab
guitar tuner
edit
Autoscroll
slow
fast
+/-
esc
set tempo
stop
Author
Difficulty
This is THE correct tab. Standard Tuning

Acoustic Intro
|---------------------------------------------------------------|
|-10-------10-------8------8------6-----6------8-----8----------|
|----10-------10------9------9------7-----7------9-----9--------|
|-------12-------12-----10-----10-----8-----8------10----10~----|
|---------------------------------------------------------------|
|---------------------------------------------------------------|

|-----------------------------------------------------------|
|-10-------10-------8-----8------6-----6-----6/8------------|
|----10-------10------9-----9------7-----7--------let ring--|
|-------12-------12-----10----10-----8-----8-8/10-----------|
|-----------------------------------------------------------|
|-----------------------------------------------------------|

COME ON!!! Heavy distortion Intro.


|------------------------------------------------------------------|
|------5-----5-6-5---5---------------------------------------------|
|--5h7---5h7-------7---7-5-----------------------------------------|
|--------------------------7-------5p3h5/7---5p3h5/7---5p3---------|
|----------------------------------------------------------5p3-5~--|
|------------------------------------------------------------------|

|----------------5---------------------------|
|--5-6-8---5-6-8---6-5--8-6-5----------------|
|-----------------------------5--------------|
|--------------------------------------3-5b--|
|---------------------------------3h5--------|
|--------------------------------------------|

Verse 1 - RHYTHM


I said hey girl whats your name, haven't i seen you before?
         D               C                   G              A
--------------------------------------------------------------|
--------------------------------------------------------------|
------X-X-7----------X-X-5------------------------------------|
------X-X-7----------X-X-5---------------X-X-5----------X-X-7-|
------X-X-5----------X-X-3---------------X-X-5----------X-X-7-|
-----------------------------------------X-X-3----------X-X-5-|

I recognized them dark green eyes when you walked through the door.
           D              C                   G              A
----------------------------------------------------------------|
----------------------------------------------------------------|
--------X-X-7----------X-X-5------------------------------------|
--------X-X-7----------X-X-5----------------X-X-5---------X-X-7-|
--------X-X-5----------X-X-3----------------X-X-5---------X-X-7-|
--------------------------------------------X-X-3---------X-X-5-|

Are you alone or are you with someone? She said matter of fact im not.
            D              C                  G               A
----------------------------------------------------------------|
----------------------------------------------------------------|
------------7--------------5------------------------------------|
--------X-X-7----------X-X-5----------------X-X-5---------X-X-7-|
--------X-X-5----------X-X-3----------------X-X-5---------X-X-7-|
--------------------------------------------X-X-3---------X-X-5-|

So i took her hand, that's when it all began when we headed toward the parking lot...
             D             C                            F               G
----------------------------------------------------------------------------|
----------------------------------------------------------------------------|
------------7--------------5------------------------------------------------|
--------X-X-7----------X-X-5----------------------------3~-------------/5---|
--------X-X-5----------X-X-3----------------------------3~-------------/5---|
--------------------------------------------------------1~-------------/3---|

LEAD Riffs in Verse 1.

...you walked through the door.      ...matter of fact im not.
|-------------------------|         | -------------------------|
|-------------------------|         |--------------------------|
|----5/7-(5)--------------|         |--------------------------|
|------------7\5-(3)------|         |------3~------------------|
|--------------------5~---|         |--3h5---------------------|
|-------------------------|         |--------------------------|

CHORUS

And she said
        Hey boy, do you mind takin' me home tonight?
            D              C                   G             A
---------------------------------------------------------------|
---------------------------------------------------------------|
------------7--------------5-----------------------------------|
--------X-X-7----------X-X-5---------------X-X-5---------X-X-7-|
--------X-X-5----------X-X-3---------------X-X-5---------X-X-7-|
-------------------------------------------X-X-3---------X-X-5-|

Cause I aint ever a country boy with tires on his truck this high.
            D              C                   G           F   G
-----------------------------------------------------------------|
-----------------------------------------------------------------|
------------7--------------5-------------------------------------|
--------X-X-7----------X-X-5---------------X-X-5---------X-3-x-5-|
--------X-X-5----------X-X-3---------------X-X-5---------X-3-x-5-|
-------------------------------------------X-X-3---------X-1-x-3-|

I said climb on up, but honey watch the cup that i'm spittin' my dip inside.
            D              C                   G             A
---------------------------------------------------------------|
---------------------------------------------------------------|
------------7--------------5-----------------------------------|
--------X-X-7----------X-X-5---------------X-X-5---------X-X-7-|
--------X-X-5----------X-X-3---------------X-X-5---------X-X-7-|
-------------------------------------------X-X-3---------X-X-5-|

And hold on tight, cause it's gonna be wilder than any 8 second ride.
            D              C                   G           F   G
-----------------------------------------------------------------|
-----------------------------------------------------------------|
------------7--------------5-------------------------------------|
--------X-X-7----------X-X-5---------------X-X-5---------X-3-X-5-|
--------X-X-5----------X-X-3---------------X-X-5---------X-3-X-5-|
-------------------------------------------X-X-3---------X-1-X-3-|

     
INTRO x 1

All of Verse 2 Is palm muted.

                 D                    C                 G             A
We went ridin' around, rockin' to the sound of a country boy can survive.
            D                         C               G            F     G
And I knew then that she was my kinda girl, cause she singin' every single line.
                  D                      C                              G
Then she slid on over, put my hand on her shoulder, and I asked her what she
         A
wanted to do.
                  D                      C                 G               A
She said it really don't matter where we go just as long as im ridin' with you.


REPEAT CHORUS


BRIDGE
so we headed out to old tobacco road
           F          E              D
-------------------------------------------|
-------------------------------------------|
-------x-x-10------x-x-5----------x-x-7----|
-------x-x-10------x-x-5----------x-x-7----|
-------x-x--8------x-x-3----------x-x-5----|
-------------------------------------------|

LEAD
---------------------------------------------------|
------------------------------------7~-7-(5)-5h7\--|
------------------------------------7~-7-(5)-5h7\--|
---------3P0--------------5P0-------7~-7-(5)-5h7\--|
-----3/5---------3-3--5/7------5-5-----------------|
-1-1-----------------------------------------------|

Put the tailgate down, 

and we laid down and we made love.

She said a true country boy is hard to find,

But I found one wilder than any 8 second ride.


LEAD
...one wilder...
     --10b(11)r10-10h12-----|
     -----------------------|
     -----------------------|
     -----------------------|
     -----------------------|
     -----------------------|

Repeat CHORUS

Then do the last line...
And hold on tight cause its gonna be wilder than any 8 second ride.
           D              C                   G           F   G
------------------------------------------------------------------|
------------------------------------------------------------------|
------------7--------------5--------------------------------------|
--------X-X-7----------X-X-5---------------X-X-5---------X-3-X-5-|
--------X-X-5----------X-X-3---------------X-X-5---------X-3-X-5-|
-------------------------------------------X-X-3---------X-1-X-3-|

Repeat INTRO

End.

            
            
Suggest correction
Creating personal tab
Creating personal tab
You can edit any tab online and save it as your Personal.

You can edit, replace or remove any tab part or add personal notes – all changes will be seen only by you.

Personal tabs can be accessed anytime from any device, even offline.
Learn more »
comments
print report bad tab
guest
You may want to rate the tab now too:
select rating
Wanna post a correction for this tab? Suggest correction