Oops, an error
Loading. Please wait.

8 Second Ride Tab

version 2
version 2

Intro

6,557 views 3 this week
no commentswrite comment
1 2 3 4 5
x 5
add to favorites
launch autoscroll
font size
0
reset
how to read this tab
guitar tuner
Autoscroll
slow
fast
+/-
esc
set tempo
stop
Help us to improve Ultimate-Guitar.com Take our survey!
×
Author
Difficulty
intermediate
        EIGHT SECOND RIDE
            JAKE OWENS


INTRO(sounds acoustic)

-------------------------------------------------------------|
-10-------10-------8------8------6-----6------8-----8--------|
----10-------10------9------9------7-----7------9-----9------|
-------12-------12-----10-----10-----8-----8------10----10~--|
-------------------------------------------------------------|
-------------------------------------------------------------|

----------------------------------------------------------|
-10-------10-------8-----8------6-----6-----6/8-----------|
----10-------10------9-----9------7-----7--------let ring-|
-------12-------12-----10----10-----8-----8-8/10----------|
----------------------------------------------------------|
----------------------------------------------------------|


COME ON!!(distortion here with twin guitars)

part1
-----------------------------------|
---------5h6p5---------------------|
-----5h7-------7-(5)h7p5-----------|
-5h7---------------------7-(5)~----|  (broke it down in two parts)
-----------------------------------|
-----------------------------------|
part2
------------------------------------|
------------------------------------|
------------------------------------|
-5-(3)-5/7\5-(3)-5/7\5-(3)-5-(3)----|
---------------------------------5~-|
------------------------------------|   guitar one(RHYTHM) repeat both parts
                                      while guitar two(LEAD) does this
GUITAR#2 ( LEAD)                                   \  /
part 1                                              \/
-----------------------------------|
-----6-----8-(8)/10\8-(6)----------|
-7h9---7h9----------------9-7-5~---|
-----------------------------------|
-----------------------------------|
-----------------------------------|

part2
-----------------------------------|
-----------------------------------|
-5p0-5/7\5-(3)-5/7~----------------|
-----------------------------------|
-----------------------------------|
-----------------------------------|


VERSE1 (RHYTHM)


i said hey girl whats your name havent i seen you before?
            D              C                   G             A
---------------------------------------------------------------|
---------------------------------------------------------------|
------------7--------------5-----------------------------------|
--------X-X-7----------X-X-5---------------X-X-5---------X-X-7-|
--------X-X-5----------X-X-3---------------X-X-5---------X-X-7-|
-------------------------------------------X-X-3---------X-X-5-|

I recognized them dark green eyes when you walked through the door
            D              C                   G             A
---------------------------------------------------------------|
---------------------------------------------------------------|
------------7--------------5-----------------------------------|
--------X-X-7----------X-X-5---------------X-X-5---------X-X-7-|
--------X-X-5----------X-X-3---------------X-X-5---------X-X-7-|
-------------------------------------------X-X-3---------X-X-5-|

Are you alone or are you with someone she said matter of fact im not
            D              C                   G             A
---------------------------------------------------------------|
---------------------------------------------------------------|
------------7--------------5-----------------------------------|
--------X-X-7----------X-X-5---------------X-X-5---------X-X-7-|
--------X-X-5----------X-X-3---------------X-X-5---------X-X-7-|
-------------------------------------------X-X-3---------X-X-5-|

So i took her hand that's when it all began when we headed toward the park...
            D              C                            F               G
----------------------------------------------------------------------------|
----------------------------------------------------------------------------|
------------7--------------5------------------------------------------------|
--------X-X-7----------X-X-5----------------------------3~-------------/5---|
--------X-X-5----------X-X-3----------------------------3~-------------/5---|
--------------------------------------------------------1~-------------/3---|


LEAD riffs for verse1

...you walked through the door      ...matter of fact im not
-------------------------           -------------------------|
-------------------------           -------------------------|
----5/7-(5)--------------           -------------------------|
------------7\5-(3)------           ------3~-----------------|
--------------------5~---           --3h5--------------------|
-------------------------           -------------------------|

CHORUS

And she said
        hey boy do you mind takin' me home tonight?
            D              C                   G             A
---------------------------------------------------------------|
---------------------------------------------------------------|
------------7--------------5-----------------------------------|
--------X-X-7----------X-X-5---------------X-X-5---------X-X-7-|
--------X-X-5----------X-X-3---------------X-X-5---------X-X-7-|
-------------------------------------------X-X-3---------X-X-5-|

Cause i aint ever a country boy with tires on his truck this high
            D              C                   G           F   G
-----------------------------------------------------------------|
-----------------------------------------------------------------|
------------7--------------5-------------------------------------|
--------X-X-7----------X-X-5---------------X-X-5---------X-3-x-5-|
--------X-X-5----------X-X-3---------------X-X-5---------X-3-x-5-|
-------------------------------------------X-X-3---------X-1-x-3-|

I said climb on up but honey watch the cup that im spittin' my dip inside
            D              C                   G             A
---------------------------------------------------------------|
---------------------------------------------------------------|
------------7--------------5-----------------------------------|
--------X-X-7----------X-X-5---------------X-X-5---------X-X-7-|
--------X-X-5----------X-X-3---------------X-X-5---------X-X-7-|
-------------------------------------------X-X-3---------X-X-5-|

And hold on tight cause its gonna be wilder than any 8 second ride
            D              C                   G           F   G
-----------------------------------------------------------------|
-----------------------------------------------------------------|
------------7--------------5-------------------------------------|
--------X-X-7----------X-X-5---------------X-X-5---------X-3-X-5-|
--------X-X-5----------X-X-3---------------X-X-5---------X-3-X-5-|
-------------------------------------------X-X-3---------X-1-X-3-|

repeat DISTORTION INTRO here (i guess its the solo too)


verse 2( this whole verse is palm muted


                 D                    C                 G             A
we went ridin' around rockin' to the sound of a country boy can survive
            D                         C               G            F     G
and i knew then that she was my kinda girl cause she singin' every single line
                  D                      C                              G
then she slid on over put my hand on her shoulder and i asked her what she
         A
wanted to do
                  D                      C                 G               A
she said it really dont matter where we go just as long as im ridin' with you


REPEAT CHORUS

BRIDGE?
so we headed out to old tobacco road
            F          E              D
-------------------------------------------|
-------------------------------------------|
-------x-x-10------x-x-5----------x-x-7----|
-------x-x-10------x-x-5----------x-x-7----|
-------x-x--8------x-x-3----------x-x-5----|
-------------------------------------------|

LEAD
---------------------------------------------------|
------------------------------------7~-7-(5)-5h7\--|
------------------------------------7~-7-(5)-5h7\--|
---------3P0--------------5P0-------7~-7-(5)-5h7\--|
-----3/5---------3-3--5/7------5-5-----------------|
-1-1-----------------------------------------------|

and we laid down and we made love

she said a true country boy is hard to find

but i found one wilder than any 8 second ride

LEAD
...one wilder...
     --10b(11)r10-10h12-----|
     -----------------------|
     -----------------------|
     -----------------------|
     -----------------------|
     -----------------------|


repeat CHORUS and then the part
(cause its gonna be wilder than any 8 second ride)

then the DISTORTION INTRO again and that's it
Suggest correction
comments
print report bad tab
guest
You may want to rate the tab now too:
select rating
Wanna post a correction for this tab? Suggest correction