Oops, an error
Loading. Please wait.

Believe tab

4 views 1 this week
no commentswrite comment
1 2 3 4 5
3 more votes to show rating
add to favorites
×
Save as Personal and add changes to this tab that will be seen only by you. Learn more ›
×
You can save this tab as Personal to edit and correct it or add notes. All changes will be seen only by you. Learn more »
launch autoscroll
font size
0
reset
how to read this tab
guitar tuner
edit
Autoscroll
slow
fast
+/-
esc
set tempo
stop
About this tab version
"Believe" is off Jake West's EP "Lost and Found" (2013). Available to listen to on YouTube. Was this info helpful? Yes No
[Intro]
e|---------------------------------------------------------------------------|
B|-----1--1----1--1-----1--1-----1--1----------------------------------------|
G|-----0--0----0--0-----0--0-----0--0----------------------------------------|
D|---------------------------------------------------------------------------|
A|--3--------3-------3--------3----------------------------------------------|
E|---------------------------------------------------------------------------|

[Chorus]
e|---------------------------------------------------------------------------|
B|-----1--1-----1--1-----3--3-----1--1---------------------------------------|
G|-----0--0-----2--2-----0--0-----2--2---------------------------------------|
D|-----------3-----------------2---------------------------------------------|
A|--3------------------------------------------------------------------------|
E|--------------------3------------------------------------------------------|
  All that I know, is all that I see,

e|---------------------------------------------------------------------------|
B|-----1--1-----1--1-----3--3-----1--1---------------------------------------|
G|-----0--0-----2--2-----0--0-----0--0---------------------------------------|
D|-----------3---------------------------------------------------------------|
A|--3--------------------------3---------------------------------------------|
E|--------------------3------------------------------------------------------|
  Lord won’t you help me to believe. 

e|---------------------------------------------------------------------------|
B|-----1--1----1--1-----1--1-------------------------------------------------|
G|-----0--0----0--0-----0--0-------------------------------------------------|
D|---------------------------------------------------------------------------|
A|--3--------3-------3-------------------------------------------------------|
E|---------------------------------------------------------------------------|

[Verse]
e|---------------------------------------------------------------------------|
B|-----1--1-----1--1-----3--3-----1--1---------------------------------------|
G|-----2--2-----0--0-----0--0-----2--2---------------------------------------|
D|--3--------------------------2---------------------------------------------|
A|-----------3---------------------------------------------------------------|
E|--------------------3------------------------------------------------------|
  If the shadows could speak, and the earth could weep, 

e|---------------------------------------------------------------------------|
B|-----1--1-----1--1-----3--3-----1--1---------------------------------------|
G|-----2--2-----0--0-----0--0-----2--2---------------------------------------|
D|--3--------------------------2---------------------------------------------|
A|-----------3---------------------------------------------------------------|
E|--------------------3------------------------------------------------------|
  And the skies could see, what’s down beneath. 

e|---------------------------------------------------------------------------|
B|-----1--1-----1--1-----3--3-----1--1---------------------------------------|
G|-----2--2-----0--0-----0--0-----2--2---------------------------------------|
D|--3--------------------------2---------------------------------------------|
A|-----------3---------------------------------------------------------------|
E|--------------------3------------------------------------------------------|
  And the hands that made, were out on display. 

e|---------------------------------------------------------------------------|
B|-----1--1-----3--3-----1--1------------------------------------------------|
G|-----2--2-----0--0-----0--0------------------------------------------------|
D|--3------------------------------------------------------------------------|
A|--------------------3------------------------------------------------------|
E|-----------3---------------------------------------------------------------|
  Then surely we’d all believe. 

e|---------------------------------------------------------------------------|
B|-----1--1----1--1-----1--1-------------------------------------------------|
G|-----0--0----0--0-----0--0-------------------------------------------------|
D|---------------------------------------------------------------------------|
A|--3--------3-------3-------------------------------------------------------|
E|---------------------------------------------------------------------------|

[Chorus]
e|---------------------------------------------------------------------------|
B|-----1--1-----1--1-----3--3-----1--1---------------------------------------|
G|-----0--0-----2--2-----0--0-----2--2---------------------------------------|
D|-----------3-----------------2---------------------------------------------|
A|--3------------------------------------------------------------------------|
E|--------------------3------------------------------------------------------|
  All that I know, is all that I see,

e|---------------------------------------------------------------------------|
B|-----1--1-----1--1-----3--3-----1--1---------------------------------------|
G|-----0--0-----2--2-----0--0-----0--0---------------------------------------|
D|-----------3---------------------------------------------------------------|
A|--3--------------------------3---------------------------------------------|
E|--------------------3------------------------------------------------------|
  Lord won’t you help me to believe. 

e|---------------------------------------------------------------------------|
B|-----1--1----1--1-----1--1-------------------------------------------------|
G|-----0--0----0--0-----0--0-------------------------------------------------|
D|---------------------------------------------------------------------------|
A|--3--------3-------3-------------------------------------------------------|
E|---------------------------------------------------------------------------|

[Verse]
e|---------------------------------------------------------------------------|
B|-----1--1-----1--1-----3--3-----1--1---------------------------------------|
G|-----2--2-----0--0-----0--0-----2--2---------------------------------------|
D|--3--------------------------2---------------------------------------------|
A|-----------3---------------------------------------------------------------|
E|--------------------3------------------------------------------------------|
If the people could feed, on all that they need.

e|---------------------------------------------------------------------------|
B|-----1--1-----1--1-----3--3-----1--1---------------------------------------|
G|-----2--2-----0--0-----0--0-----2--2---------------------------------------|
D|--3--------------------------2---------------------------------------------|
A|-----------3---------------------------------------------------------------|
E|--------------------3------------------------------------------------------| 
And money was unheard of, and there was no greed.

e|---------------------------------------------------------------------------|
B|-----1--1-----1--1-----3--3-----1--1---------------------------------------|
G|-----2--2-----0--0-----0--0-----2--2---------------------------------------|
D|--3--------------------------2---------------------------------------------|
A|-----------3---------------------------------------------------------------|
E|--------------------3------------------------------------------------------|
The people would smile, not just for a while.

e|---------------------------------------------------------------------------|
B|-----1--1-----3--3-----1--1------------------------------------------------|
G|-----2--2-----0--0-----0--0------------------------------------------------|
D|--3------------------------------------------------------------------------|
A|--------------------3------------------------------------------------------|
E|-----------3---------------------------------------------------------------|
  Then surely we’d all believe. 

e|---------------------------------------------------------------------------|
B|-----1--1----1--1-----1--1-------------------------------------------------|
G|-----0--0----0--0-----0--0-------------------------------------------------|
D|---------------------------------------------------------------------------|
A|--3--------3-------3-------------------------------------------------------|
E|---------------------------------------------------------------------------|

[Chorus]
e|---------------------------------------------------------------------------|
B|-----1--1-----1--1-----3--3-----1--1---------------------------------------|
G|-----0--0-----2--2-----0--0-----2--2---------------------------------------|
D|-----------3-----------------2---------------------------------------------|
A|--3------------------------------------------------------------------------|
E|--------------------3------------------------------------------------------|
  All that I know, is all that I see,

e|---------------------------------------------------------------------------|
B|-----1--1-----1--1-----3--3-----1--1---------------------------------------|
G|-----0--0-----2--2-----0--0-----0--0---------------------------------------|
D|-----------3---------------------------------------------------------------|
A|--3--------------------------3---------------------------------------------|
E|--------------------3------------------------------------------------------|
  Lord won’t you help me to believe. 

[Into Strumming - DDUDU]
C,C,C,C

[Verse]
       F         C              G         Am
If the mountains moved, and the earth was shaken,
        F       C           G           Am         
And the thunder roared, and people were taken.
       F           C                G         Am 
If the stars began falling, and the sun turned black,
     F           G   C 
Then surely we’d all believe. 
F           G   C
Surely we’d all believe. 
     F*          G*        C*
We’d fall to our knees and believe.



Suggest correction
Creating personal tab
Creating personal tab
You can edit any tab online and save it as your Personal.

You can edit, replace or remove any tab part or add personal notes – all changes will be seen only by you.

Personal tabs can be accessed anytime from any device, even offline.
Learn more »
Give kudos to tab author, rate the tab!
1 2 3 4 5
comments
print report bad tab
guest
You may want to rate the tab now too:
select rating
Wanna post a correction for this tab? Suggest correction