Oops, an error
Loading. Please wait.

Dil Hare Tab

version 1
version 1

Solo

Whole song

5,795 views 6 this week
no commentswrite comment
1 2 3 4 5
3 more votes to show rating
add to favorites
launch autoscroll
font size
0
reset
how to read this tab
guitar tuner
×
Best way to learn
"Dil Hare"
Autoscroll
slow
fast
+/-
esc
set tempo
stop
Author
HEY FELLAS.......I M "S T".... 
.......TRY THE SOLO.....

THIS IS THE CLOSEST.......I GUESS.......CUZ THIS IS WHAT I CAN HEAR........


        --THE SOLO


e|-----------------------------------------------------------|
b|-----------------------------------------------------------|
g|-7-7-5-4---4-7-7-5-4-4-5p4-4-4-4-5p4-4-4-4-4-5-4-5-4-4----4|
d|---------7---------------------------------------------7-7-|
a|-----------------------------------------------------------|
e|-----------------------------------------------------------|


e|------------------------------------------5/7-8-7-5-7-|
b|--------------------------------------8-7-------------|
g|---------4-----4----7-5-4------4----------------------|
d|-7-5-5h7---7-7---7--------7-7-----7-5-----------------|
a|------------------------------------------------------|
e|------------------------------------------------------|


e|-8-8-8\7-7-7-7\5-5-5\3-3--10-10-10\8-8-8\7-7-7\5-5-|
b|---------------------------------------------------|
g|---------------------------------------------------|
d|---------------------------------------------------|
a|---------------------------------------------------|
e|---------------------------------------------------|


e|-8-7-5------------------------------------5-7-8-7------|
b|-------7-5h7-5-5\3-3\1-3---------------5-7---------8-7-|
g|---------------------------5-4-5p4-5-4-----------------|
d|-------------------------------------------------------|
a|-------------------------------------------------------|
e|-------------------------------------------------------|


e|------------------------------------------------12-10-8-7-5-3|
b|-5-----------------------------------------------------------|
g|----5-4-4h5p4---------------------------5-----7--------------|
d|--------------5-7-5----------------5--7---7-5----------------|
a|--------------------7-5-7---5--5h7---------------------------|
e|-------------------------------------------------------------|
Suggest correction
Give kudos to tab author, rate the tab!
1 2 3 4 5
comments
print report bad tab
guest
You may want to rate the tab now too:
select rating
Wanna post a correction for this tab? Suggest correction