Oops, an error
Loading. Please wait.

Humein Itna Pyar Na Karo Tab

by Jal
2,189 views 3 this week
1 commentread comment
1 2 3 4 5
please rate
add to favorites
launch autoscroll
font size
0
reset
how to read this tab
guitar tuner
Autoscroll
slow
fast
+/-
esc
set tempo
stop
Help us to improve Ultimate-Guitar.com Take our survey!
×
|---------------------------------------|
|-0-------------------------------------|
|-7------4-----6-------7---6------------|
|-7------4-----6-------7---6------------|
|-5------2-----4-------5---4------------|
|---------------------------------------|
Humhein itna pyar na karo

|----x------------x------------------------|
|----x------------x------------------------|
|----4------------6------------------------|
|----4------------6------------------------|
|----2------------4------------------------|
|----x------------x------------------------|
Keh hum mar jaein


|-------------------------------------------|
|-------------------------------------------|
|-7----------4------6----------7------------|
|-7----------4------6----------7------------|
|-5----------6------4----------5------------|
|-------------------------------------------|
Humeineeinnnn itna tanhaaaaaaaa

|-------------------------------------|
|-7--------7----5---------------------|(Strum 775 n 553 with power)
|-7--------7----5---------------------|
|-5--------5----3---------------------|
|-------------------------------------|
|-------------------------------------|
Na karo

|----------------------------------------|
|----------------------------------------|
|--------4-------------------------------|
|--------4-------------------------------|
|--------2-------------------------------|
|----------------------------------------|
Keh jee na paa eyyyy

|--x--x--x--x--x--x------------------------|
|--x--x--x--x--x--x------------------------|
|--x--x--x--x--x--x------------------------|
|--x--x--x--x--x--x------------------------|
|--x--x--x--x--x--x------------------------|
|--x--x--x--x--x--x------------------------|
NOw the Song kiCks IN :
|--x---x-x--x---x-x------------------------|
|--x---x-x--x---x-x------------------------|
|--8---x-x--9---x-x------------------------|X2 (means: play it two times)
|-10---x-x-10---x-x------------------------|
|-10---x-x-10---x-x------------------------|
|--x---x-x--x----x-x-----------------------|

|-x---x-x---x----x-x------------------------|
|-x---x-x---x----x-x------------------------|
|-7---x-x---8----x-x------------------------|X2 (means:play it two times)
|-10--x-x--10----x-x------------------------|
|-10--x-x--10----x-x------------------------|
|-0---x-x---0----x-x------------------------|

And the rest song goes on the same pattern !
Suggest correction
Give kudos to tab author, rate the tab!
1 2 3 4 5
comments
print report bad tab
1 comment total.
0 reply
junaid9005516 10 wrote on January 15 2008, 06:24 am

101% wrong..........shit heads.....

guest
You may want to rate the tab now too:
select rating
Please do not post tabs as comments. Select "correction" instead!