Oops, an error
Loading. Please wait.

Rangon Mein Bass

by Jal
829 views 1 this week
no commentswrite comment
1 2 3 4 5
3 more votes to show rating
add to favorites
launch autoscroll
font size
0
reset
guitar tuner
×
Best way to learn
"Rangon Mein"
Autoscroll
slow
fast
+/-
esc
set tempo
stop
Band:Jal    Song:Rangoon Mein(Unplugged)

After intro
G|--------------|
D|--------------|
A|-----2-----2--|
E|--3-----3-----|

After Pause
G|----------------------------------------------------|
D|----------------------------------------------------|
A|-2-2---2-2---2-2---2-2---2-2-3-4-5-5-7--2-2-3-4-5-5-|
E|----3-3---3-3---3-3---3-3---------------------------|

G|----------------------------------------------------|
D|----------------------------------------------------|
A|-2-2---2-2---2-2-3-4-5-5-7--2-2-3-4-5-5-------------|
E|----3-3---3-3---------------------------------------|

G|----------------------------------------------------|
D|----------------------------------------------------|
A|-2-2---2-2------------------------------------------|
E|----3-3---3-3--0-2-3--0-2-3-3-3-3-3-3-3-3-----------|

G|----------------------------------------------------|
D|----------------------------------------------------|
A|-2-2---2-2----2-2---2-2---2-2-----------------------|
E|----3-3---3-3----3-3---3-3---3-3--------------------|
                AaaaaaAaaaaa

G|----------------------------------------------------|
D|----------------------------------------------------|
A|-0--------------------------------------------------|
E|---5--3--2-2-2---0--5--3--2-2--2--------------------|
   Hmmmmmmmmmmmm   Hmmmmmmmmmmmmmm

G|----------------------------------------------------|
D|----------------------------------------------------|
A|-0--------------------------------------------------|
E|---5--3--2-2-2---0--5--3--2-2--2--------------------|
   Hmmmmmmmmmmmm   Hmmmmmmmmmmmmmm

Apnay Haath.....
G|----------------------------------------------------|
D|----------------------------------------------------|
A|-2-2---2-2------------------------------------------|
E|----3-3---3-3--0-2-3--0-2-3-3-3-3-3-3-3-3-----------|

G|----------------------------------------------------|
D|----------------------------------------------------|
A|-2-2---2-2------------------------------------------|
E|----3-3---3-3---------------------------------------|

Acoustic:
G|----------------------------------------------------|
D|----------------------------------------------------|
A|---------------------3-3--5-5--7-7---3-3--5-5--7-7--|
E|-0-2-3-5--7-5-3-2-0--3-3--5-5--7-7---3-3--5-5--7-7--|
Bass:
G|----------------------------------------------------|
D|----------------------------------------------------|
A|---------------------3-3--5-5--7-7---3-3--5-5--7-7--|
E|---------------------3-3--5-5--7-7---3-3--5-5--7-7--|

G|----------------------------------------------------|
D|----------------------------------------------------|
A|-2-2---2-2---2-2-3-4-5-5-7--2-2-3-4-5-5-7---2-------|
E|----3-3---3-3------------------------------3--------|
               Oooooooooooooooooooooooooo
                     !!!EnD!!!

Usman Khan.......Sekcmonks@Hotmail.com
Suggest correction
Give kudos to tab author, rate the tab!
1 2 3 4 5
comments
print report bad tab
guest
You may want to rate the tab now too:
select rating
Wanna post a correction for this tab? Suggest correction