Oops, an error
Loading. Please wait.

Woh Lamhey tab

version 1
version 1

Whole song

Interactive

by Jal
40,965 views 33 this week
1 commentread comment
1 2 3 4 5
x 4
add to favorites
×
Save as Personal and add changes to this tab that will be seen only by you. Learn more ›
×
You can save this tab as Personal to edit and correct it or add notes. All changes will be seen only by you. Learn more »
launch autoscroll
font size
0
reset
how to read this tab
guitar tuner
edit
Autoscroll
slow
fast
+/-
esc
set tempo
stop
Author
Author/Artist: Jal
Title: Woh Lamhay
Album: Aadat
Transcribed by: Muaz Iqbal

This is my interpretation of the song
Corrections and comments r wellcomed at muaz_iqbal@yahoo.com

[INTRO]

[Riff-1]
e|--------------------------------------14-11--------|
B|---------------------------12--11--9---------------|
G|----------------9--8--6----------------------------|
D|---9-8---8-6---------------------------------------|
A|-6-----6------6----------6-------------------------|
E|---------------------------------------------------|

[Riff-2]
e|--------------------------------------------14-11--|
B|----------------------------------12--11--9--------|
G|-----------------------9--8--6---------------------|
D|---9-8---8-6-6h8p6-6-------------------------------|X2
A|-6-----6-------------6----------6------------------|
E|---------------------------------------------------|

[Riff-3]
e|--7-6-4--7-6-4h6-7-6-4-14----12----11--------------|
B|--------------------------11----11-----------------|
G|---------------------------------------------------|
D|---------------------------------------------------|X2
A|---------------------------------------------------|
E|---------------------------------------------------|


G#m is played with [Riff-3]


G#m                        F#
Wo lumhey Wo ratein koi na Jane
                     E
thi kaisey batein wo bersatein
                 F# 
wo bhegie bhegie yadein
                 E 
wo bhegie bhegie yadein



G#m                F#
Na mein Janu Na tu Jane
G#m
kaisa hai yea alum
F#
koi na jane
G#m 
phir kyon hai yea tanhaeee
F#
kaisi hai yea ruSwaieee
E
ghum ho gaye kyonnn
F#
kho gey hummmm

G#m 
Wo lumhey

[Riff-3]
e|--7-6-4--7-6-4h6-7-6-4-14----12----11--------------|
B|--------------------------11----11-----------------|
G|---------------------------------------------------|
D|---------------------------------------------------|X2
A|---------------------------------------------------|
E|---------------------------------------------------|

G#M                    F#
sager ki in lerroun se gehra hai mera mun
G#M                                 F#
sehrahoun ki in hawaoun mein kaisey aaye gi bahar
G#M 
phir kyon hai yea tunhaiee
F#
kaisi hai yea ruswaye
E
ghum ho gaye kyon
F#
khoo gaye hum


G#m                        F#
Wo lumhey Wo ratein koi na Jane
                     E
thi kaisey batein wo bersatein
                 F# 
wo bhegie bhegie yadein
                 E 
wo bhegie bhegie yadein


[SOLO]

    d u d d u d  d u d d u d  d u d d u d
e|-----------------------------------------------------------------|
B|-------------------------------------------9s11-11s12-11-9-------|
G|--6-6-6-4-4-4--6-6-6-4-4-4--6-6-6-4-4-4--------------------------|
D|-----------------------------------------------------------------|
A|-----------------------------------------------------------------|
E|-----------------------------------------------------------------|

    d u d d u d  d u d d u d  d u d d u d
e|-----------------------------------------------------------------------|
B|------------------------------------------9-11-12-14-12-11-9s11-9s7----|
G|--6-6-6-4-4-4--6-6-6-4-4-4---6-6-6-4-4-4-------------------------------|
D|-----------------------------------------------------------------------|
A|-----------------------------------------------------------------------|
E|-----------------------------------------------------------------------|

e|------------------------------------------|
B|-9-11-12-14-14s17-16--16h17p16-14h16------|
G|------------------------------------------|
D|------------------------------------------|
A|------------------------------------------|
E|------------------------------------------|



G#m 
andhie ho ya tufan ho
F#
mere mun mein rahe tu sada
G#m
koi apna ho ya paraya ho 
F#
usey dhoundoun mein kahan
G#m
phir kyon hai yea tunhaye
F#
kaisi hai yea ruswaye
E
ghum ho gaye kyon
F#
kho geye hum Ooooooooooooooooooooo


G#m                        F#
Wo lumhey Wo ratein koi na Jane
                     E
thi kaisey batein wo bersatein
                 F# 
wo bhegie bhegie yadein
                 E 
wo bhegie bhegie yadein


[OUTRO]

G#m - F#
Suggest correction
Creating personal tab
Creating personal tab
You can edit any tab online and save it as your Personal.

You can edit, replace or remove any tab part or add personal notes – all changes will be seen only by you.

Personal tabs can be accessed anytime from any device, even offline.
Learn more »
comments
print report bad tab
1 comment total.
0 reply
noxiouswinter 10 Apr 15, 2006 12:22 AM

[Riff-1] from6 from9
e|--------------------------------------------------------------14-11--------|
B|---------------------------------------12-11---11---9----/11---------------|
G|----------------------9-8---8---6--/8--------8----8---8--------------------|
D|---9-8---8----6------------------------------------------------------------|
A|-6-----6---6-----6--6-----6---6---6----------------------------------------|
E|---------------------------------------------------------------------------|

try this correction for 1st riff.. 2nd 3rd etc is similar to this.
my first tab post ever.. sorry if i'm wrong
noxiouswinter@hotmail.com

guest
You may want to rate the tab now too:
select rating
Wanna post a correction for this tab? Suggest correction