Oops, an error
Loading. Please wait.

Moving On Acoustic tab

by James
427 views 6 this week
no commentswrite comment
1 2 3 4 5
3 more votes to show rating
add to favorites
×
Save as Personal and add changes to this tab that will be seen only by you. Learn more ›
×
You can save this tab as Personal to edit and correct it or add notes. All changes will be seen only by you. Learn more »
launch autoscroll
font size
0
reset
how to read this tab
guitar tuner
edit
Autoscroll
slow
fast
+/-
esc
set tempo
stop
Author
Difficulty
About this tab version
This version of the song is based on the semi-acoustic version found on YouTube. Was this info helpful? Yes No
The song can be found here: https://www.youtube.com/watch?v=XmpcMxEIMeI

Some of the slides could be a tremolo, but since the guitar is not always visible
in the video, it's somewhat hard to tell.

//[Guitar 1] = Rhythm Bass

//[Guitar 2] = Lead Guitar


[Intro & Verse] Please, don't get me started...

[Guitar 1] 

  F                 C                 Bb                F
e|1-----------------0-----------------1-----------------1--------------------|
B|1-----------------1-----------------3-----------------1--------------------|
G|2-x16-------------0-x16-------------3-x16-------------2-x16----------------|  x2
D|3-----------------2-----------------3-----------------3--------------------|
A|3-----------------3-----------------1-----------------3--------------------|
E|1-----------------x-----------------x-----------------1--------------------|

[Guitar 2]

  F                 C                 Bb                  F
e|1~----------------0~-----------------1~-----------------1~-----------------|
B|1~----------------1~-----------------3~-----------------1~-----------------|
G|2~----------------0~-----------------3~-----------------2~-----------------| 
D|3~----------------2~-----------------3~-----------------3~-----------------|
A|3~----------------3~-----------------1~-----------------3~-----------------|
E|1~----------------x------------------x------------------1~-----------------|

  F6      c6        C                  Bb                 F
e|1-------0~--------0~-----------------1~------------------------------------|
B|3-------1~--------1~-----------------3~------------------------------------|
G|2-------2~--------0~-----------------3~-------------------0----------------| 
D|3-------2~--------2~-----------------3~-3-------------------7--------------|
A|0-------3~--------3~-----------------1~----------5-8-10-8------------------|
E|x-------x---------x------------------x-------------------------------------|

[Pre-Chorus] Now my bags are packed...

[Guitar 1]

  F                 C                  Dm                 Bb
e|1-----------------0------------------1------------------1------------------|
B|1-----------------1------------------3------------------3------------------|
G|2-x16-------------0-x16--------------2-x16--------------3-x16--------------| x2
D|3-----------------2------------------0------------------3------------------|
A|3-----------------3------------------x------------------1------------------|
E|1-----------------x------------------x------------------x------------------|

[Guitar 2]

e|---------------------------------------------------------------------------|
B|------15~-13~------------15~-13~------------15~-13~------------15~-13~-----|
G|---------------------------------------------------------------------------|
D|---------------------------------------------------------------------------|
A|---------------------------------------------------------------------------|
E|---------------------------------------------------------------------------|

e|---------------------------------------------------------------------------|
B|-----13/15-13-----------13/15\13-----------13/15\13------------------------|
G|---------------------------------------------------------------------------|
D|---------------------------------------------------------------------------|
A|---------------------------------------------------------------------------|
E|---------------------------------------------------------------------------|

[Chorus]

[Guitar 1]

  F                 C                  Dm                 Bb
e|1-----------------0------------------1------------------1------------------|
B|1-----------------1------------------3------------------3------------------|
G|2-x16-------------0-x16--------------2-x16--------------3-x16--------------| x2
D|3-----------------2------------------0------------------3------------------|
A|3-----------------3------------------x------------------1------------------|
E|1-----------------x------------------x------------------x------------------|

[Guitar 2]

e|-----------------------------------------------13-15~-----------13--15-17-13--|
B|------15~-13~------------15~-13~------------15---------------15---------------|
G|------------------------------------------------------------------------------| x2
D|------------------------------------------------------------------------------|
A|------------------------------------------------------------------------------|
E|------------------------------------------------------------------------------|

[Interlude]

[Guitar 1]

  Bb                Gm                Dm
e|1-----------------3-----------------1--------------------------------------|
B|3-----------------3-----------------3--------------------------------------|
G|3-x8--------------3-x8--------------2-x16----------------------------------|
D|3-----------------5-----------------0--------------------------------------|
A|1-----------------5-----------------x--------------------------------------|
E|x-----------------3-----------------x--------------------------------------|

  Bb                Gm                Dm
e|1-----------------3-----------------1-----------------0--------------------|
B|3-----------------3-----------------3-----------------1--------------------|
G|3-x8--------------3-x8--------------2-x8--------------0-x8-----------------|
D|3-----------------5-----------------0-----------------2--------------------|
A|1-----------------5-----------------x-----------------3--------------------|
E|x-----------------3-----------------x-----------------x--------------------|

[Guitar 2]

e|---------------------------------------------------------------------------|
B|-15---15N13Nr15---13/15---15N13Nr15---13~ ---------------------------------| *Tremolo can be replaced 
G|---------------------------------------------------------------------------|        with slide
D|---------------------------------------------------------------------------|
A|---------------------------------------------------------------------------|
E|---------------------------------------------------------------------------|

[Solo]

e|-13---12/13---12/15-13-15-15/17-17---17p15-13-13-----------------------------------|
B|---------------------------------------------------15\13/15---13/15--15-15-18-15---|
G|-----------------------------------------------------------------------------------|
D|-----------------------------------------------------------------------------------|
A|-----------------------------------------------------------------------------------|
E|-----------------------------------------------------------------------------------|

[Final Chorus}

Guitar 1 remains the same

[Guitar 2]

e|----------------------------------------------------------------13-15-17-13---|
B|-------15-13-----------------------------------8------------15----------------|
G|------------------------5h7-5-------------7h10--------------------------------|
D|------------------------------------------------------------------------------|
A|------------------------------------------------------------------------------|
E|------------------------------------------------------------------------------|

e|---------------------------------------------------------------------------|
B|-------15\13---------------------------------------------------------------|
G|---------------------------------------------------------------------------|
D|---------------------------------------------------------------------------|
A|---------------------------------------------------------------------------|
E|---------------------------------------------------------------------------|

[Outro]

[Guitar 1]

  F
e|1--------------------------------------------------------------------------|
B|1--------------------------------------------------------------------------|
G|2--------------------------------------------------------------------------|
D|3--------------------------------------------------------------------------|
A|3--------------------------------------------------------------------------|
E|1--------------------------------------------------------------------------|

[Guitar 2]

  C6
e|0~----------------0~----------------0~----------------0~-------------------|
B|1~----------------1~----------------1~----------------1~-------------------|
G|2~----------------2~----------------2~----------------2~-------------------|  
D|2~----------------2~----------------2~----------------2~-------------------|
A|3~----------------3~----------------3~----------------3~-------------------|
E|x-----------------x-----------------x-----------------x--------------------|



************************************

| x   Dead note
| p   Pull-off
| r   Release
| /   Slide up
| \   Slide down
| ~   Vibrato
| N   Tremolo
| Nr  Tremolo release

************************************

            
            
Suggest correction
Creating personal tab
Creating personal tab
You can edit any tab online and save it as your Personal.

You can edit, replace or remove any tab part or add personal notes – all changes will be seen only by you.

Personal tabs can be accessed anytime from any device, even offline.
Learn more »
Give kudos to tab author, rate the tab!
1 2 3 4 5
comments
print report bad tab
guest
You may want to rate the tab now too:
select rating
Wanna post a correction for this tab? Suggest correction