Oops, an error
Loading. Please wait.

Say You Wont Let Go Tab

version 1
version 1

Intro

  • Based on this tuto ( https://www.youtube.com/watch?v=39fQYoCG0sA ) Key A.
  • Added in additional bass notes.
  • A great finger-style guitar part which continues t... Show more

Whole song

  • Capo on 3rd fret. just strum the chords if you cant pick it.
  • Full fingerstyle version based off Andrew Foys arrangement.
  • This version has a whole song guitar solo with all... Show more
  • This tab will show you how to fingerpick every sin... Show more
  • This tab is based off the studio recorded version ... Show more
  • Please if you don't understand the tab feel free to message me :D.
  • ver 9 new
    Because it is based on my hearing.

Interactive

170,920 views 10,737 this week
5 commentsread comments
1 2 3 4 5
x 165
add to favorites
launch autoscroll
font size
0
reset
how to read this tab
guitar tuner
Autoscroll
slow
fast
+/-
esc
set tempo
stop
Help us to improve Ultimate-Guitar.com Take our survey!
×
Author
Difficulty
Tuning
Capo
novice
E A D G B E
3rd fret
----------------------------------------------------------------- 
SAY YOU WON'T LET GO - James Arthur
----------------------------------------------------------------- 
Tabbed by: garge
Difficulty: intermediate
Tuning: E A D G B E 
 
CAPO 3

CHORDS (relative to capo)

G6   - 32003x
D5   - xx023x
Em7  - 02203x
C    - x32010

[Whole song]

    G6          D5           Em7             C
e|----------------------------------------------------------------|
B|------3-0----------3------------3-0-------------1-1-----1-0p----|
G|------0-0--0-------2--4---2r0---0-0---2-0p------0-0-------------|
D|-------------0--------0---0-------------------------------------|
A|-----------------0------0--------------------3--------3---------|
E|--3-------------------------0-----------------------------------|

  
************************************

| p  Pull-off
| r Just release string, don't pull

************************************
Suggest correction
comments
print report bad tab
5 comments total. Showing first comments.
+1 reply
pog.lightningdust 10 Oct 14, 2016 07:46 PM

perfect :D

+9 reply
pog.lightningdust 10 Oct 19, 2016 11:08 PM

Noticed a flaw, at the end (C) it's played:
e|------------------|
B|--1-1---1-0p------|
G|--0-0-------------|
D|------------------|
A|------3-----------|
E|------------------|

0 reply
xxmylesxx3 10 Jan 12, 2017 10:03 PM

do you have to play it with a capo?

guest
You may want to rate the tab now too:
select rating
Wanna post a correction for this tab? Suggest correction