Oops, an error
Loading. Please wait.

Say You Wont Let Go Tab

version 1
version 1

Intro

  • Based on this tuto ( https://www.youtube.com/watch?v=39fQYoCG0sA ) Key A.
  • Added in additional bass notes.
  • A great finger-style guitar part which continues t... Show more

Whole song

  • Capo on 3rd fret. just strum the chords if you cant pick it.
  • Based off Andrew Foys arrangement.

Interactive

48,184 views 2,256 this week
2 commentsread comments
1 2 3 4 5
x 92
add to favorites
launch autoscroll
font size
0
reset
how to read this tab
guitar tuner
Autoscroll
slow
fast
+/-
esc
set tempo
stop
Help us to improve Ultimate-Guitar.com Take our survey!
×
Author
Difficulty
Tuning
Capo
novice
E A D G B E
3rd fret
----------------------------------------------------------------- 
SAY YOU WON'T LET GO - James Arthur
----------------------------------------------------------------- 
Tabbed by: garge
Difficulty: intermediate
Tuning: E A D G B E 
 
CAPO 3

CHORDS (relative to capo)

G6   - 32003x
D6   - xx023x
Em7  - 02203x
C    - x32010

[Whole song]

    G6          D6           Em7             C
e|---------------------------------------------------------------|
B|------3-0---------3------------3-0-------------1-1---1-0p------|
G|------0-0--0------2-4--2-------0-0---2-0p------2-2-------------|
D|--------------0-----0--0---------------------------------------|
A|------------------------------------------3--------3-----------|
E|--3------------------------0-----------------------------------|

  
************************************

| p  Pull-off

************************************
Suggest correction
comments
print report bad tab
2 comments total.
+1 reply
pog.lightningdust 10 Oct 14, 2016 07:46 PM

perfect :D

+7 reply
pog.lightningdust 10 Oct 19, 2016 11:08 PM

Noticed a flaw, at the end (C) it's played:
e|------------------|
B|--1-1---1-0p------|
G|--0-0-------------|
D|------------------|
A|------3-----------|
E|------------------|

guest
You may want to rate the tab now too:
select rating
Wanna post a correction for this tab? Suggest correction