Oops, an error
Loading. Please wait.

Say You Wont Let Go Tab

version 2
version 2

Intro

  • Based on this tuto ( https://www.youtube.com/watch?v=39fQYoCG0sA ) Key A.
  • Added in additional bass notes.
  • A great finger-style guitar part which continues t... Show more

Whole song

  • Capo on 3rd fret. just strum the chords if you cant pick it.
  • Based off Andrew Foys arrangement.

Interactive

5,569 views 282 this week
no commentswrite comment
1 2 3 4 5
x 3
add to favorites
launch autoscroll
font size
0
reset
how to read this tab
guitar tuner
Autoscroll
slow
fast
+/-
esc
set tempo
stop
Help us to improve Ultimate-Guitar.com Take our survey!
×
Author
Difficulty
Capo
novice
3rd fret
[Intro]
E|-------------------------------------------|
B|---2-0-------3-0--------2-0--------1-1--1p0|
G|---0-0--0----2-2--2-----0-0--0-----0-0-----|
D|------------0------------------------------|
A|---------------------------------3---------|
E|--3-------------------0--------------------|

E|-------------------------------------------|
B|---2-0-------3-0--------2-0--------1-1--1p0|
G|---0-0--0----2-2--2-----0-0--0-----0-0-----|
D|------------0------------------------------|
A|---------------------------------3---------|
E|--3-------------------0--------------------|
 
************************************

| p  Pull-off

************************************
Suggest correction
Give kudos to tab author, rate the tab!
1 2 3 4 5
comments
print report bad tab
guest
You may want to rate the tab now too:
select rating
Wanna post a correction for this tab? Suggest correction