Oops, an error
Loading. Please wait.

Say You Wont Let Go Tab

version 1
version 1

Solo

  • ver 1 new
    This tabbed version of 'Say You Wont Let Go' by Ja... Show more

Whole song

  • Capo on 3rd fret. just strum the chords if you cant pick it.
  • ver 4 new
    Based off Andrew Foys arrangement.

Interactive

115 views 115 this week
no commentswrite comment
1 2 3 4 5
2 more votes to show rating
add to favorites
launch autoscroll
font size
0
reset
how to read this tab
guitar tuner
Autoscroll
slow
fast
+/-
esc
set tempo
stop
Help us to improve Ultimate-Guitar.com Take our survey!
×
Difficulty
intermediate
About this tab version
This tabbed version of 'Say You Wont Let Go' by James Arthur is easy to follow, although, it is based on few strings it is easier to follow whist the tab is visible. This tab was made by ear and therefore may have some improvements. Was this info helpful? Yes No
[Verse 1]

The following tabs follow the vocal syllable's of James Arthur in his song 'Say You Won't Let Go' and the
lyrics are seen below each tab section:

e|--------------------------------------------------------------------------------|
B|--------------------------------------------------------------------------------|
G|--------------------------------------------------------------------------------|
D|--------------------------------------------------------------------------------|
A|-8--8---5---5--3----1~----8---8--5---5~--8----8--5----5---3---1-----6--6--5-6-5-|
E|--------------------------------------------------------------------------------|
   I met you in the dark, you lit me up, you made me feel as though, I was enough,
e|-----------------------------------------------------------------------------------------------|
B|-----------------------------------------------------------------------------------------------|
G|-----------------------------------------------------------------------------------------------|
D|-----------------------------------------------------------------------------------------------|
A|-8-----8----5----5----3-1--8---10---5---5-3---8---8---5----5----3----1------6---6h5---6------5-|
E|-----------------------------------------------------------------------------------------------|
   We danced the night away, we drank too much, I held your hair back when, you were throwing up.

[Pre-Chorus]

e|---------------------------------------------------------------------------------------------------------|
B|---------------------------------------------------------------------------------------------------------|
G|---------------------------------------------------------------------------------------------------------|
D|---------------------------------------------------------------------------------------------------------|
A|--8---10----13---8-10--13----15-13----8-10-13--13--13--13--13--13--15-17--17-15----17--18-17--15-13--13--|
E|---------------------------------------------------------------------------------------------------------|
   Then you smiled over your shoulder, for a minute I was stone cold sober, I pulled you closer to my chest.
e|--------------------------------------------------------------------------------------------------|
B|--------------------------------------------------------------------------------------------------|
G|--------------------------------------------------------------------------------------------------|
D|--------------------------------------------------------------------------------------------------|
A|--8--10----13--8--10--13-15-13--8-10---13-13-13-13-15-17----17-15----17---18---17---15---13---10--|
E|--------------------------------------------------------------------------------------------------|
   And you asked me to stay over, I said, I already told you, I think that you should get some rest.

[Chorus 1]

e|---------------------------------------------------------------------------------------------------------|
B|---------------------------------------------------------------------------------------------------------|
G|---------------------------------------------------------------------------------------------------------|
D|---------------------------------------------------------------------------------------------------------|
A|-20-20--17-17---15---13--------20----20----17---------20-20-----17--17---15-13-------18---18--17-18-17---|
E|---------------------------------------------------------------------------------------------------------|
   I knew I loved you then, but you'd never know, 'Cause I played it cool when I was scared of letting go
e|-----------------------------------------------------------------------------------------------|
B|-----------------------------------------------------------------------------------------------|
G|-----------------------------------------------------------------------------------------------|
D|-------------------------17--------------------------------------------------------------------|
A|-20-20-17-17-15--13----20---17-17-15------20-20-17-17-15---13----13--17---18---18--18-17 18 17-|
E|-----------------------------------------------------------------------------------------------|
   I knew I needed you, but I never showed, but i wanna stay with you, until we're grey and old
e|------------------------------------------------------|
B|------------------------------------------------------|
G|------------------------------------------------------|
D|-----19--20---------------------19--20----------------|
A|-20-----------20---17--20---20-----------20---17--18--|
E|------------------------------------------------------|
  Just say you won't let go, Just say you won't let go

[Verse 2]

e|----------------------------------------------------------------------------------------------|
B|----------------------------------------------------------------------------------------------|
G|----------------------------------------------------------------------------------------------|
D|----------------------------------------------------------------------------------------------|
A|--8----8----5---5--3----1-----8--8----5---5---8----8------5---5-3----1---5--6----6--5---6-5---|
E|----------------------------------------------------------------------------------------------| 
   I'll wake you up with some breakfast in bed, I'll bring you coffee with a kiss on your head
e|---------------------------------------------------------------------------------------------------|
B|---------------------------------------------------------------------------------------------------|
G|---------------------------------------------------------------------------------------------------|
D|---------------------------------------------------------------------------------------------------|
A|-------8----8---5----5---3---1------8----8----5-5-3--------8----8----5---5-3---1----6----6---5-6-5-|
E|---------------------------------------------------------------------------------------------------|
   And I'll take the kids to school, wave them goodbye, and I'll thank my lucky stars for that night

[Pre-chorus 2]

e|---------------------------------------------------------------------------|
B|---------------------------------------------------------------------------|
G|---------------------------------------------------------------------------|
D|---------------------------------------------------------------------------|
A|--5----10--13-----8-10-13---15--13----8--10-13-13--13-13-13--13--13--15-17-|
E|---------------------------------------------------------------------------|
   When you looked over your shoulder, for a minute, I forgot that I'm older
e|--------------------------------------------------------------------------------------|
B|--------------------------------------------------------------------------------------|
G|--------------------------------------------------------------------------------------|
D|------------------------------------------------------15---12-------------------------|
A|17-15-17--18---17----15--11----11---8---5---3-1----------------8--8-10--10--13-15-13--|
E|--------------------------------------------------------------------------------------|
   I wanna dance with you right now, woah oh oh oh, and you look as beautiful as ever
e|----------------------------------------------------------------------------------|
B|----------------------------------------------------------------------------------|
G|----------------------------------------------------------------------------------|
D|----------------------------------------------------------------------------------|
A|--8--10-13---13---13-13-13--13-----13--15-17--20--20---17--18---17--15-13-13-15-17|
E|----------------------------------------------------------------------------------|
   And I swear that everyday you'll get better, you make me feel this way somehow

[Chorus 2]

e|-------------------------------------------------------------------------------------------------------|
B|-------------------------------------------------------------------------------------------------------|
G|-------------------------------------------------------------------------------------------------------|
D|-------------------------------------------------------------------------------------------------------|
A|-20--20-17--17---15---13---17-20-20--17--17-----20-20--17---17---15-13----17---18---17---18----17-18-17|
E|-------------------------------------------------------------------------------------------------------|
   I'm so in love with you, and I hope you know, darling your love is more than worth its weight in gold
e|---------------------------------------------------------------------------------------------------------|
B|---------------------------------------------------------------------------------------------------------|
G|---------------------------------------------------------------------------------------------------------|
D|---------------------------------17---------------------------------------------13-12---13---12--13-12---|
A|--20---20---17-17--15--13---20-------17----17-15---17-20-20-17-17--15---13---13--------------------------|
E|---------------------------------------------------------------------------------------------------------|
   We've come so far my dear, look how we've grown, and I wanna stay with you, until we're grey and old
e|--------------------------------------------------------|
B|--------------------------------------------------------|
G|-----------------------------------------17-------------|
D|------19--20---------------------19--20-----------------|
A|--20----------20----17--20---20----------------20--17---|
E|--------------------------------------------------------|
   Just say you won't let go, Just say you won't let go.

[Bridge]

e|--------------------------------------------------------------------------------------------------------|
B|--------------------------------------------------------------------------------------------------------|
G|--------------------------------------------------------------------------------------------------------|
D|--------------------------------------------------------------------------------------------------------|
A|8--8-5---5----3---1-----8-8--8----5------5-----------8---8--8--5-----5-----3---1----5---6---5-6--5---6-5|
E|--------------------------------------------------------------------------------------------------------|
  I wanna live with you, even when we're ghosts, cause you were always there for me, when I needed you most

[Chorus 3]

e|----------------------------------------------------------------------------------------------|
B|----------------------------------------------------------------------------------------------|
G|----------------------------------------------------------------------------------------------|
D|-----------------------------17---------------------------------------------------------------|
A|-20--20-17--17--15---13---20--------17-17-15-20-20-17---17---17---15--13---18---18--17--18-17-|
E|----------------------------------------------------------------------------------------------|
   I'm gonna love you till, my lungs give out, I promise till death we part, like in our vows
e|----------------------------------------------------------------------------------------------------------|
B|----------------------------------------------------------------------------------------------------------|
G|----------------------------------------------------------------------------------------------------------|
D|---------------------------------------17-----------------------------------------------------------------|
A|20-20-20----17--17---15---13---20-20-20--17--17s15--20--20---17---17--15--13--17-18--17---18---17--18-17--|
E|----------------------------------------------------------------------------------------------------------|
  So I wrote this song for you, now everybody knows, that it's just you and me, until we're grey and old
e|---------------------------------------------------------|
B|---------------------------------------------------------|
G|-----------------------------------------17--------------|
D|------19-20----------------------19---20-------17--20----|
A|--20-------20--17---15--13---20--------------------------|
E|---------------------------------------------------------|
   Just say you won't let go, just say you won't let go.

[Outro]

e|---------------------------------------------------------------|
B|---------------------------------------------------------------|
G|---------------------------------------------------------------|
D|------17--15--15---------------------19--20--------------------|
A|--20----------------17--15---15--20----------20----17--20~-----|
E|---------------------------------------------------------------|
   Just say you won't let go, oh, Just say you won't let go.

************************************
| h   Hammer-on
| p   Pull-off
| ~   Vibrato
| S   Slide
************************************
Suggest correction
Give kudos to tab author, rate the tab!
1 2 3 4 5
comments
print report bad tab
guest
You may want to rate the tab now too:
select rating
Wanna post a correction for this tab? Suggest correction