Oops, an error
Loading. Please wait.

Say You Wont Let Go Tab

version 2
version 2

Whole song

  • Capo on 3rd fret. just strum the chords if you cant pick it.
  • ver 4 new
    Based off Andrew Foys arrangement.

Interactive

Video

  • Video lesson on how to play the latest song from j... Show more
14,020 views 3,150 this week
2 commentsread comments
1 2 3 4 5
x 109
add to favorites
launch autoscroll
font size
0
reset
how to read this tab
guitar tuner
Autoscroll
slow
fast
+/-
esc
set tempo
stop
Help us to improve Ultimate-Guitar.com Take our survey!
×
Author
Difficulty
Tuning
Capo
intermediate
E A D G B E
3rd fret
---------------------------------------------------------------------------------
           VIDEO LESSON - https://www.youtube.com/watch?v=f8kdCVACuYo
---------------------------------------------------------------------------------

--------------------------------------------
           CAPO ON THE 3RD FRET
--------------------------------------------

[Main Riff - Played basically through the whole song]

   G                  D/F#               Em7    Em          C
e|------------------|------------------|------------------|-------------------|
B|-----3--0---------|-----3--0---------|-----3--0---------|-----1--1-----1p0--|
G|-----0--0-----0---|-----2--2-----2---|-----0--0-----0---|-----0--0----------|
D|------------------|--------0---0-----|------------------|-------------------|
A|------------------|------------------|------------------|-3------3---3------|
E|-3------3---3-----|-2----------------|-0------0---0-----|-------------------|
Suggest correction
There is a new version of this tab from 6 days ago which you may like more. Go check it out:
comments
print report bad tab
2 comments total.
+1 reply
Hozpink 10 Oct 20, 2016 04:11 AM

This one sounds better than the others. love it

0 reply
clarosa31 10 Nov 20, 2016 11:13 PM

great sounding tab. The 2 on the low E for D/F# sounds good but in the recording its an open D.

guest
You may want to rate the tab now too:
select rating
Wanna post a correction for this tab? Suggest correction