Oops, an error
Loading. Please wait.
We have Chord Pro version of Say You Wont Let Go.
It's the closest thing you can get to the original song and it has interactive parts. Check out the tab »
×

Say You Wont Let Go Tab

version 2
version 2

Whole song

  • Capo on 3rd fret. just strum the chords if you cant pick it.
  • Full fingerstyle version based off Andrew Foys arrangement.
  • This version has a whole song guitar solo with all... Show more
  • This tab will show you how to fingerpick every sin... Show more
  • This tab is based off the studio recorded version ... Show more
  • Please if you don't understand the tab feel free to message me :D.
  • Because it is based on my hearing.
  • The original song is played without a capo, but th... Show more

Interactive

Video

  • Video lesson on how to play the latest song from j... Show more
  • Super quick guitar lesson detailing the chords and... Show more
  • High quality, easy to follow video lesson.
  • This is Mattias Krantz fingerstyle guitar tutorial... Show more
177,979 views 3,678 this week
13 commentsread comments
1 2 3 4 5
x 1,210
add to favorites
×
Save as Personal and add changes to this tab that will be seen only by you. Learn more ›
×
You can save this tab as Personal to edit and correct it or add notes. All changes will be seen only by you. Learn more »
save as personal
new!
launch autoscroll
font size
0
reset
how to read this tab
guitar tuner
Autoscroll
slow
fast
+/-
esc
set tempo
stop
Author
Difficulty
Tuning
Capo
intermediate
E A D G B E
3rd fret
---------------------------------------------------------------------------------
           VIDEO LESSON - https://www.youtube.com/watch?v=f8kdCVACuYo
---------------------------------------------------------------------------------

--------------------------------------------
           CAPO ON THE 3RD FRET
--------------------------------------------

[Main Riff - Played basically through the whole song]

   G                  D                  Em7    Em          C
e|------------------|------------------|------------------|-------------------|
B|-----3--0---------|-----3--0---------|-----3--0---------|-----1--1-----1p0--|
G|-----0--0-----0---|-----2--2-----2---|-----0--0-----0---|-----0--0----------|
D|------------------|--0-----0---0---0-|------------------|-------------------|
A|------------------|------------------|------------------|-3------3---3------|
E|-3------3---3---3-|------------------|-0------0---0---0-|-------------------|
Suggest correction
comments
print report bad tab
13 comments total. Showing first comments.
+33 reply
Hozpink 10 Oct 20, 2016 12:11 AM

This one sounds better than the others. love it

+18 reply
clarosa31 10 Nov 20, 2016 06:13 PM

great sounding tab. The 2 on the low E for D/F# sounds good but in the recording its an open D.

+5 reply
Isakgura 10 Dec 08, 2016 04:41 AM

Thank you sooo much!!!!!! 10/10

guest
You may want to rate the tab now too:
select rating
Wanna post a correction for this tab? Suggest correction