Oops, an error
Loading. Please wait.

Say You Wont Let Go Tab

version 3
version 3

Whole song

  • Capo on 3rd fret. just strum the chords if you cant pick it.
  • Based off Andrew Foys arrangement.
  • ver 5 new
    This version has a whole song guitar solo with all... Show more

Interactive

Video

  • Video lesson on how to play the latest song from j... Show more
895 views 216 this week
no commentswrite comment
1 2 3 4 5
3 more votes to show rating
add to favorites
launch autoscroll
font size
0
reset
how to read this tab
guitar tuner
Autoscroll
slow
fast
+/-
esc
set tempo
stop
Help us to improve Ultimate-Guitar.com Take our survey!
×
Author
Difficulty
Capo
intermediate
3rd fret
About this tab version
Capo on 3rd fret. just strum the chords if you cant pick it. Was this info helpful? Yes No
Chords:

G  e|--3--|    D/F#  e|--2--|    Em  e|--0--|    C  e|--0--|
   B|--3--|          B|--3--|        B|--0--|       B|--1--|
   G|--0--|          G|--2--|        G|--0--|       G|--0--|
   D|--0--|          D|--0--|        D|--2--|       D|--2--|
   A|--2--|          A|--0--|        A|--2--|       A|--3--|
   E|--3--|          E|--2--|        E|--0--|       E|-----|



[Intro]
   G                         D/F#                       Em                        C
e|--------x----------------|--------x-----------------|--------x---------------|--------x-----------------|
B|------3-x-0--------------|------3-x-0---------------|------3-x-0-------------|------1-x-1---------1p0---|
G|------0-x-0--------0-----|------2-x-2---------2-----|------0-x-0--------0----|------0-x-0---------0-----|
D|--------x----------------|--------x-0-----0---------|--------x---------------|--------x-----------------|
A|--------x----------------|--------x-----------------|--------x---------------|--3-----x-3-----3---------|
E|---3----x-3----3---------|--2-----x-----------------|---0----x-0----0--------|--------x-----------------| 

[Verse]
   G                         D/F#                       Em                        C
e|--------x----------------|--------x-----------------|--------x---------------|--------x-----------------|
B|------3-x-0--------------|------3-x-0---------------|------3-x-0-------------|------1-x-1---------1p0---|
G|------0-x-0--------0-----|------2-x-2---------2-----|------0-x-0--------0----|------0-x-0---------0-----|
D|--------x----------------|--------x-0-----0-----0---|--------x---------------|--------x-----------------|
A|--------x----------------|--------x-----------------|--------x---------------|--3-----x-3-----3---------|
E|---3----x-3----3-----3---|--2-----x-----------------|---0----x-0----0-----0--|--------x-----------------|x2

I met you in the dark
You lit me up
You made me feel as though
I was enough
We danced the night away
We drank too much
I held your hair back when
You were throwing up

[Pre-Chorus]
   G                         D/F#                       Em                        C
e|--------x----------------|--------x-----------------|--------x---------------|--------x-----------------|
B|------3-x-0--------------|------3-x-0---------------|------3-x-0-------------|------1-x-1---------1p0---|
G|------0-x-0--------0-----|------2-x-2---------2-----|------0-x-0--------0----|------0-x-0---------0-----|
D|--------x----------------|--------x-0-----0-----0---|--------x---------------|--------x-----------------|
A|--------x----------------|--------x-----------------|--------x---------------|--3-----x-3-----3---------|
E|---3----x-3----3-----3---|--2-----x-----------------|---0----x-0----0-----0--|--------x-----------------|x2

Then you smiled over your shoulder
For a minute, I was stone cold sober
I pulled you closer to my chest
And you asked me to stay over
I said, I already told ya
I think that you should get some rest

[Chorus]
   G                            D/F#                          Em                            
e|---------3-x-3---3-3----3--3-|--------2-x-2---2-2----2--2-|--------0-x-0---0-0----0--0--|
B|---------3-x-0---0-0----0--0-|--------3-x-0---0-0----0--0-|--------3-x-0---0-0----0--0--|
G|---------0-x-0---0-0----0--0-|--------2-x-2---2-2----2--2-|--------0-x-0---0-0----0--0--|
D|---0---0---x-0---0-0----0----|--0---0---x-0---0-0----0----|--2---2---x-2---2-2----2-----|
A|---2---2---x-2---2-2----2----|--0---0---x-0---0-0----0----|--2---2---x-2---2-2----2-----|
E|---3---3---x-3---3-3----3----|--2---2---x-2---2-2----2----|--0---0---x-0---0-0----0-----|

   C
e|--------0-x-0---0-0----0--0---|
B|--------1-x-1---1-1----1--1p0-|
G|--------0-x-0---0-0----0--0---|
D|--2---2---x-2---2-2----2------|
A|--3---3---x-3---3-3----3------|
E|----------x-------------------|  x3

I knew I loved you then
But you'd never know
Cause I played it cool when I was scared of letting go
I know I needed you
But I never showed
But I wanna stay with you
Until we're grey and old
Just say you won't let go
Just say you won't let go

[Verse]
   G                         D/F#                       Em                        C
e|--------x----------------|--------x-----------------|--------x---------------|--------x-----------------|
B|------3-x-0--------------|------3-x-0---------------|------3-x-0-------------|------1-x-1---------1p0---|
G|------0-x-0--------------|------2-x-2---------------|------0-x-0-------------|------0-x-0---------0-----|
D|--------x----------------|--------x-0---------------|--------x---------------|--------x-----------------|
A|--------x----------------|--------x-----------------|--------x---------------|--3-----x-3-----3---------|
E|---3----x-3--------------|--2-----x-----------------|---0----x-0-------------|--------x-----------------| 

   G                         D/F#                       Em                        C
e|--------x----------------|--------x-----------------|--------x---------------|--------x-----------------|
B|------3-x-0--------------|------3-x-0---------------|------3-x-0-------------|------1-x-1---------1p0---|
G|------0-x-0--------0-----|------2-x-2---------2-----|------0-x-0--------0----|------0-x-0---------0-----|
D|--------x----------------|--------x-0-----0---------|--------x---------------|--------x-----------------|
A|--------x----------------|--------x-----------------|--------x---------------|--3-----x-3-----3---------|
E|---3----x-3----3---------|--2-----x-----------------|---0----x-0----0--------|--------x-----------------| 

I wake you up with some breakfast in bed
I'll bring you coffee
With a kiss on your head
And I'll take the kids to school
Wave them goodbye
And I'll thank my lucky stars for that night

[Pre-Chorus]
   G                         D/F#                       Em                        C
e|--------x----------------|--------x-----------------|--------x---------------|--------x-----------------|
B|------3-x-0--------------|------3-x-0---------------|------3-x-0-------------|------1-x-1---------1p0---|
G|------0-x-0--------0-----|------2-x-2---------2-----|------0-x-0--------0----|------0-x-0---------0-----|
D|--------x----------------|--------x-0-----0-----0---|--------x---------------|--------x-----------------|
A|--------x----------------|--------x-----------------|--------x---------------|--3-----x-3-----3---------|
E|---3----x-3----3-----3---|--2-----x-----------------|---0----x-0----0-----0--|--------x-----------------|x2

When you looked over your shoulder
For a minute, I forget that I'm older
I wanna dance with you right now, oh
And you look as beautiful as ever
And I swear that everyday you'll get better
You make me feel this way somehow

[Chorus]
   G                            D/F#                          Em                            
e|---------3-x-3---3-3----3--3-|--------2-x-2---2-2----2--2-|--------0-x-0---0-0----0--0--|
B|---------3-x-0---0-0----0--0-|--------3-x-0---0-0----0--0-|--------3-x-0---0-0----0--0--|
G|---------0-x-0---0-0----0--0-|--------2-x-2---2-2----2--2-|--------0-x-0---0-0----0--0--|
D|---0---0---x-0---0-0----0----|--0---0---x-0---0-0----0----|--2---2---x-2---2-2----2-----|
A|---2---2---x-2---2-2----2----|--0---0---x-0---0-0----0----|--2---2---x-2---2-2----2-----|
E|---3---3---x-3---3-3----3----|--2---2---x-2---2-2----2----|--0---0---x-0---0-0----0-----|

   C
e|--------0-x-0---0-0----0--0---|
B|--------1-x-1---1-1----1--1p0-|
G|--------0-x-0---0-0----0--0---|
D|--2---2---x-2---2-2----2------|
A|--3---3---x-3---3-3----3------|
E|----------x-------------------|x3

I'm so in love with you
And I hope you know
Darling your love is more than worth its weight in gold
We've come so far my dear
Look how we've grown
And I wanna stay with you
Until we're grey and old
Just say you won't let go
Just say you won't let go

[Bridge]
  G                    D/F#                   Em                 C
e|---3---------------|--2------------------|---0---------------|--0-----------------|
B|---3---------------|--3------------------|---0---------------|--1-----------------|
G|---0---------------|--2------------------|---0---------------|--0-----------------|
D|---0---------------|--0------------------|---2---------------|--2-----------------|
A|---2---------------|--0------------------|---2---------------|--3-----------------|
E|---3---------------|--2------------------|---0---------------|--------------------| 

I wanna live with you
Even when we're ghosts
Cause you were always there for me
When I needed you most


[Chorus]
   G                            D/F#                          Em                            
e|---------3-x-3---3-3----3--3-|--------2-x-2---2-2----2--2-|--------0-x-0---0-0----0--0--|
B|---------3-x-0---0-0----0--0-|--------3-x-0---0-0----0--0-|--------3-x-0---0-0----0--0--|
G|---------0-x-0---0-0----0--0-|--------2-x-2---2-2----2--2-|--------0-x-0---0-0----0--0--|
D|---0---0---x-0---0-0----0----|--0---0---x-0---0-0----0----|--2---2---x-2---2-2----2-----|
A|---2---2---x-2---2-2----2----|--0---0---x-0---0-0----0----|--2---2---x-2---2-2----2-----|
E|---3---3---x-3---3-3----3----|--2---2---x-2---2-2----2----|--0---0---x-0---0-0----0-----|

   C
e|--------0-x-0---0-0----0--0---|
B|--------1-x-1---1-1----1--1p0-|
G|--------0-x-0---0-0----0--0---|
D|--2---2---x-2---2-2----2------|
A|--3---3---x-3---3-3----3------|
E|----------x-------------------|x3

I'm gonna love you till
My lungs give out
I promise till death we part
Like in our vows
So I wrote this song for you
Now everybody knows
That it's just you and me
Until we're grey and old
Just say you won't let go
Just say you won't let go


[Outro]

   G                            D/F#                          Em                            
e|---------3-x-3---3-3----3--3-|--------2-x-2---2-2----2--2-|--------0-x-0---0-0----0--0--|
B|---------3-x-0---0-0----0--0-|--------3-x-0---0-0----0--0-|--------3-x-0---0-0----0--0--|
G|---------0-x-0---0-0----0--0-|--------2-x-2---2-2----2--2-|--------0-x-0---0-0----0--0--|
D|---0---0---x-0---0-0----0----|--0---0---x-0---0-0----0----|--2---2---x-2---2-2----2-----|
A|---2---2---x-2---2-2----2----|--0---0---x-0---0-0----0----|--2---2---x-2---2-2----2-----|
E|---3---3---x-3---3-3----3----|--2---2---x-2---2-2----2----|--0---0---x-0---0-0----0-----|

   C                              G
e|--------0-x-0---0-0----0--0---|-------|
B|--------1-x-1---1-1----1--1p0-|-------|
G|--------0-x-0---0-0----0--0---|---0---|
D|--2---2---x-2---2-2----2------|---0---|
A|--3---3---x-3---3-3----3------|---2---|
E|----------x-------------------|---3---|

Just say you won't let go
Oh, just say you won't let go


************************************

| x   Dead note/Slap
| p   Pull-off

************************************
Suggest correction
Give kudos to tab author, rate the tab!
1 2 3 4 5
There is a new version of this tab from 3 days ago which you may like more. Go check it out:
comments
print report bad tab
guest
You may want to rate the tab now too:
select rating
Wanna post a correction for this tab? Suggest correction