Oops, an error
Loading. Please wait.

Say You Wont Let Go Tab

version 4
version 4

Whole song

  • Capo on 3rd fret. just strum the chords if you cant pick it.
  • Based off Andrew Foys arrangement.
  • ver 5 new
    This version has a whole song guitar solo with all... Show more

Interactive

Video

  • Video lesson on how to play the latest song from j... Show more
709 views 435 this week
no commentswrite comment
1 2 3 4 5
x 4
add to favorites
launch autoscroll
font size
0
reset
how to read this tab
guitar tuner
Autoscroll
slow
fast
+/-
esc
set tempo
stop
Help us to improve Ultimate-Guitar.com Take our survey!
×
Author
Difficulty
Capo
advanced
3rd fret
About this tab version
Based off Andrew Foys arrangement. Was this info helpful? Yes No
Andrew Foy's arrangement
https://www.youtube.com/watch?v=JT16slrrctQ 

[Intro]
e|---------------------------------------------------------------------------|
B|----3------0--------------3-------0-------------3------0-------------------|
G|----0------0-----2p0------2-------2-----0h2-----0------0-----2p0-----------|
D|----0------0--------------0-------0-------------0------0-------------------|
A|-------x----------------------x--------------------x-----------------------|
E|--3----x---3--3--------2------x---2--2--------0----x---0--0----------------|

                      [Verse]
e|--------------------|------------------------------------------------------|
B|----1-----1-----1p0-|-------3-3-0-0------------------3-3--0-0--------------|
G|----0-----0---------|------0----0-----2p0-----------2-----2------2---------|
D|----2-----2---------|-----0-----0------------0-----0------0--------0-------|
A|--3----x--3--3------|------------------------------------------------------|
E|-------x------------|--3--------3---------------2---------2----------------|

e|---------------------------------------------------------------------------|
B|------2/3-3---0-0-----------------1-1---0-0h1p0----------------------------|
G|-----0--------0----2p0-----------0-----(0)---------0-----------------------|
D|----0---------0-----------0-----2---------------------0h2-0----------------|
A|----------------------------3-----------3----------------------x-----------|
E|--0-----------0------------------------------------------------x-----------|

e|---------------------------------------------------------------------------|
B|-------3-3-0-0----------------3-3/5-0-0---------------2/3-3--0-0-----------|
G|------0----0----2p0----------2----------2------------0-------0----2p0------|
D|-----0-----------------0----0--------------0--------0----------------------|
A|---------------------------------------------------------------------------|
E|--3--------3--------------2-----------2-----------0----------0-------------|

                                 [Pre-Chorus]
e|------------------------------|--------------------------------------------|
B|---------1-1-0-0h1p0----1p0---|--------------------------------------------|
G|--------0-------------0-------|--------0---------0----0h2-0----------------|
D|--0----2----------------------|----0h2-------0h2---2-----------------------|
A|----3-------------------------|--------x--------------x--------------------|
E|------------------------------|-3------x--3-----------x--------------------|

e|---------------------------------------------------------------------------|
B|---------------------------------------------------------------------------|
G|--------0---0---------0--2--2/4-------4-----2--4-4/5-4-2---0--0------------|
D|----0h2---2------0h2-----------------0------0-----------------2----2-------|
A|--5-----x---5------------x---------------x---------------x-------3----x--3-|
E|--------x----------------x--------0-0----x--0------------x------------x----|
          
             
e|---------------------------------------------------------------------------|
B|-----------------0---------------------------------------------------------|
G|------------<12>------------0--------0----0h2-0---------0---0---------0--2-|
D|---------<12>-----------0h2------0h2---2------------0h2---2------0h2-------|
A|--x-x-x---------------------x-------------x-------5-----x---5------------x-|
E|--x-x-x--------------3------x--3----------x-------------x----------------x-|

                                                              [Chorus]
e|----------------------------------------------------3------|---------------|
B|---------------------------------------------------0---1p0-|------3-3-0-0--|
G|--2/4------4----2--4-4/5-4-2-----0--0-------------0--------|-----0----0----|
D|----------0-----0-------------------2----2-----------------|----0----------|
A|--------------x---------------x--------3----x-3------------|--------x------|
E|-------0-0----x-0-------------x-------------x--------------|--3-----x-3----|

e|---------------------------------------------------------------------------|
B|--------------3-3-0-0----------2/3-3-0-0---------------1-1-0--0h1p0--------|
G|--2p0--------2----2---2-------0------0----2p0---------0---(0)-------0------|
D|--------0---0-----0------0---0------------------0----2----------------0h2-0|
A|------x---------x------x-----------x----------x---3------x-3---------x-----|
E|------x=--2-----x-2----x---0-------x-0--------x----------x-----------x-----|

e|---------------------------------------------------------------------------|
B|-----3-3-0-0------------3-3/5-0-0----------2/3-3-0-0------------0h1-1-1----|
G|----0----0----2p0------2----------2-------0------0----2p0------0-----------|
D|---0--------------0---0---------------0--0-----------------0--2------------|
A|-------x---------x--------x---------x----------x---------x---3--------x----|
E|-3-----x-3-------x--2-----x-----2---x--0-------x-0-------x------------x----|

e|-------------------------2-3-----------------------------------------------|
B|-0-0h1-0------(0)-------0--0----3--0--0h3--------3-----0h1p0------0--------|
G|--------------(0)------0--(0)---0--0--0---------2------------2-------------|
D|--------------(0)---------------------------0----------0-------------------|
A|-3---------x-------x----------x-------x-------------x-----------------x--x-|
E|-----------x-------x--3-------x-3-----x-------------x-----------------x--x-|

                                           [Verse]
e|-2--3-------------------8p7-------------|----------------------------------|
B|-0--0---3-0--------0---------10-8-------|-----0h3--3-0-0-------------3-3---|
G|-0--0---0-0--/7----0---------0--0-------|----0-----0-0---2p0--------2------|
D|----------------------------------------|---0-----------------0----0-------|
A|------x---------------x------------x--x-|----------------------------------|
E|-0--0-x-0--------8----x-8----------x--x-|--3--------------------2----------|

e|---------------------------------------------------------------------------|
B|--0-0-----------2/3-3-0-0----------------1-1-0-0h1p0-----------------------|
G|--2----2-------0------0----2p0----------0-------------0--------------------|
D|---------0----0------------------0-----2-----------------0h2-0-------------|
A|-----------------------------------3---------3-----------------------------|
E|--2---------0---------0----------------------------------------------------|

e|---------------------------------------------------------------------------|
B|------3-3-0-0---------------3-3/5-0-0---------------2/3-3-0-0--------------|
G|-----0----0----2p0---------2-----------2-----------0------0---2p0----------|
D|----0----------------0----0---------------0-------0-----------------0------|
A|--------------------------------------------0--------------------------3---|
E|--3-------3-------------2-----------2-----------0---------0----------------|

                                    [Pre-Chorus]
e|---------------------------------|-----------------------------------------|
B|-----1-1-0-0h1p0---(0)-----------|-----------------------------------------|
G|----0--------------(0)-----------|--------0--------0----0h2--0----------0--|
D|---2---------------(0)-----0h2p0-|----0h2------0h2---2--------------0h2----|
A|------------------------x--------|--------x-------------x---------5-----x--|
E|------------------------x--------|--3-----x--3----------x---------------x--|

e|---------------------------------------------------------------------------|
B|---------------------------------------------------------------------------|
G|----0------0--2-2/4----4----2-4-4/5-4-2----0-0-------------/7--------------|
D|--2----0h2------------0-----0----------------2---2-------------9p7---------|
A|----5---------x-----------x--------------x-----3----x--3-------------------|
E|--------------x------0----x-0------------x----------x----------------------|

e|---------------------------------------------------------------------------|
B|------0--0------------------------------------------------------3---0--1p0-|
G|-----0---0--------0----0h2-0--------0----0-------0--2-2/4-------4---0--2p0-|
D|----0---------0h2---2-----------0h2----2-----0h2---------------------------|
A|---------x-------------x------5-----x----5----------x-------------x--------|
E|--3------x--3----------x------------x---------------x-------0---0-x--------|
 
                            [Chorus]
e|-------------------------|-------------------------------------------------|
B|---------------------1p0-|-----3-3-0-0---------------3-3-0-0---------------|
G|-2-0-0----0---------0----|----0----0----2p0---------2----2----2------------|
D|-4-2-0----2--------2-----|---0-----------------0---0-----0--------0--------|
A|--x-----3----x--3--------|-------x-----------x---------x--------x----------|
E|--x----------x-----------|-3-----x-3---------x---2-----x-2------x-----0----|

e|---------------------------------------------------------------------------|
B|---2/3-3--0-0-----------------1-1-0--0h1p0-----------------3-3-0-0---------|
G|--0-------0----2p0-----------0---(0)-------0--------------0----0----2p0----|
D|-0---------------------0----2------------------0h2-0-----0-----------------|
A|-------x------------x----3------x-3----------x---------------x----------x--|
E|-------x--0---------x-----------x------------x---------3-----x-3--------x--|

e|---------------------------------------------------------------------------|
B|------3-3/5-0-0--------------2/3-3-0-0---------------0h1-1-1-0-0h1-0--(0)--|
G|-----2------------2-------0--------0----2p0---------0-----------------(0)--|
D|-0--0---------------0----0----------------------0--2------------------(0)--|
A|--------x-------------x----------x-----------x----3--------x-3-------x-----|
E|---2----x-----2-------x-0--------x-0---------x-------------x---------x-----|

e|------------2-3----------------------------------------------2--3----------|
B|----(0)----0--0----3--0--0h3------3-----0h1p0-----0----------0--0-----3-0--|
G|----(0)---0--(0)---0--0--0-------2-------------2-------------0--0-----0-0--|
D|----(0)-----------------------0---------0----------------------------------|
A|--x--------------x-------x-----------x--------------x--x-----------x-------|
E|--x------3-------x-3-----x-----------x--------------x--x-----0--0--x--0----|

                                    [Bridge]
e|---------------------------------|-----------------------------------------|
B|--0h3-------1----0h1p0-----------|-----------------------------------------|
G|--0--------0-----------2-0-------|---------0-------------------------------|
D|----------2----------------------|--------0--0---------------0-0-----------|
A|--x----3------x--3----------x--x-|-------2-----2-2-0--------0-----2-2------|
E|--x-----------x-------------x--x-|----3--------3-----3----2-------2-----0--|
 
                                        R L R R     [Chorus]
e|------------------------------------------------|--------------------------|
B|------------------------------------------------|-------3-3-0-0------------|
G|---0--------------------------------------------|------0----0----2p0-------|
D|--0---0-----------2-----------------------------|-----0--------------------|
A|---------2-2--0---3-3-3-2-2h3p2-------x-x-x-x---|---------x------------x---|
E|---------0------3---------------------x-x-x-x---|--3------x-3----------x---|

e|---------------------------------------------------------------------------|
B|------3-3/5-0-0--------------2/3-3-0-0---------------0h1-1-1-0-0h1-0--(0)--|
G|-----2------------2-------0--------0----2p0---------0-----------------(0)--|
D|-0--0---------------0----0----------------------0--2------------------(0)--|
A|--------x-------------x----------x-----------x----3--------x-3-------x-----|
E|---2----x-----2-------x-0--------x-0---------x-------------x---------x-----|

e|------------2-3----------------------------------------------2--3------3/5-|
B|----(0)----0--0----3--0--0h3------3-----0h1p0-----0----------0--0----------|
G|----(0)---0--(0)---0--0--0-------2-------------2-------------0--0----------|
D|----(0)-----------------------0---------0----------------------------------|
A|--x--------------x-------x-----------x--------------x--x-----------x-------|
E|--x------3-------x-3-----x-----------x--------------x--x-----0--0--x---0---|

e|-0--3/5--3-------2p0----2p0---0--------------------------------------------|
B|----------------0------------3-3-0-------------0h3---0-------0-------------|
G|-----------------------------------2-2/4-2-0---0-----0-------2-0-2/4---2---|
D|-----------------------------------------------0-------------------------0-|
A|----x--------3-------x--3------------x-------------------x-------x---------|
E|----x----------------x---------------x---------3-----3---x---3---x---------|

e|-----------------------2--3-----------------------8-7----------------------|
B|-0-(0)-----------------0--0---3--0------------0-------10-8-------------0~~-|
G|-0-(0)------0----------0--0---0--0----/7------0-------0--0----------0------|
D|---------4----------------------------------------------------------0------|
A|---x-----5-----x--x---------x---------x---------x-----------x--x-----------|
E|---x-----------x--x----0--0-x-0-------x----8--8-x-8---------x--x--3--------|




************************************

| x   Dead note
|(n) Ghost note
| h   Hammer-on
| p   Pull-off
| /   Slide up
| \   Slide down
| ~   Vibrato
| R   Right hand
| L   Left hand

************************************
Suggest correction
There is a new version of this tab from 2 days ago which you may like more. Go check it out:
comments
print report bad tab
guest
You may want to rate the tab now too:
select rating
Wanna post a correction for this tab? Suggest correction