Oops, an error
Loading. Please wait.

Say You Wont Let Go Chords

version 6
version 6

Whole song

  • This version is different because unlike the other... Show more
  • This is a completely different way to play this so... Show more
  • Chords with a tab as option to play.

Interactive

Video

  • Video lesson on how to play the latest song from j... Show more
1,489 views 213 this week
no commentswrite comment
1 2 3 4 5
x 4
add to favorites
launch autoscroll
font size
0
reset
transpose
0
reset
display chords
guitar tuner
Autoscroll
slow
fast
+/-
esc
set tempo
stop
Help us to improve Ultimate-Guitar.com Take our survey!
×
Author
Difficulty
Capo
novice
1st fret
About this tab version
Chords with a tab as option to play. Was this info helpful? Yes No
Capo 1

(Play this with capo throughout the song) 
(I know it's not completely right, but it's close I guess)

[Intro]
    A               E              F#m            D
E|-----0-0-------------0-0-------------------------------2-2---------|
B|-----2-2----2--------0-0----0---------2-2--------------3-3----3----|
G|--------------2---------------1-------2-2----2------------------2--|
D|-----------------------------------------------4----0-------0------|
A|--0-------0--------------------------------------------------------|
E|------------------0-------0--------2-------2-----------------------|

[Verse]
A
I met you in the dark
E
you lit me up
F#m
you made me feel as though
D
i was enough
A
we danced the night away
E
we drank too much
F#m
i held your hair back when
D
you were throwing up

[Pre-Chorus]
A
And then you smiled over your shoulder
E
for a minute i was stone cold sober
F#m                       D
i pulled you closer to my chest
A
And then you asked me to stay over
E
i said i already told you
F#m                             D
i think that you should get some rest

[Chorus]
A
I knew i loved you then
E
but you'll never know
F#m
cause i played it cool when i
D 
was scared of letting go
A
I knew i needed you 
E
but I've never shown
F#m
and i wanna stay with you
D
until we're grey and old
A                E
just say you wont let go
F#m              D
just say you wont let go

[Verse]
    A               E              F#m            D
E|-----0-0-------------0-0-------------------------------2-2---------|
B|-----2-2-------------0-0--------------2-2--------------3-3----3----|
G|--------------------------------------2-2-----------------------2--|
D|----------------------------------------------------0-------0------|
A|--0----------------------------------------------------------------|
E|------------------0----------------2-------------------------------|

A
I wake you up with some
E
breakfast in bed
F#m
I'll bring you coffee
D
and kiss on your head

    A               E              F#m            D
E|-----0-0-------------0-0-------------------------------2-2---------|
B|-----2-2----2--------0-0----0---------2-2--------------3-3----3----|
G|--------------2---------------1-------2-2----2------------------2--|
D|-----------------------------------------------4----0-------0------|
A|--0-------0--------------------------------------------------------|
E|------------------0-------0--------2-------2-----------------------|

A
I'll take the kids to school
E
wave them goodbye
F#m
and I'll thank my lucky stars
D
for that night

[Pre-Chorus]
A
when you looked over your shoulder
E
for a minute i forget that I'm older
F#m                         D
i wanna dance with you right now
A
and you look is beautiful as ever
E
and i swear that everyday you'll get better 
F#m                          D
you make me feel this way somehow

[Chorus]
A
I'm so in love with you
E
and i hope you know
F#m
darling your love is more 
D
than its worth in gold
A
we've come so far my dear
E
look how we've grown
F#m
i want to stay with you
D
until we're grey and old
A                  E
just say you wont let go
   F#m               D
just say you wont let go

[Verse]
(strum each chord once)
A
I wanna live with you
E
even when we're ghost
F#m
cause you were always there for me 
D
when i needed you most 

[Chorus]
A
cause I'm gonna love you till
E
my lungs give up
F#m
i promise you death will part
D
like in our vows
A
So i wrote this song for you
E
now everybody knows 
F#m
cause its just you and me
D
until we're grey and old
A                  E
just say you wont let go
   F#m               D
just say you wont let go

[Outro]
A                  E
just say you wont let go
   F#m               D
just say you wont let go 
Suggest correction
comments
print report bad tab
guest
You may want to rate the tab now too:
select rating
Wanna post a correction for this tab? Suggest correction