Oops, an error
Loading. Please wait.
We have Chord Pro version of Say You Wont Let Go.
It's the closest thing you can get to the original song and it has interactive parts. Check out the tab »
×

Say You Wont Let Go tab

version 6
version 6

Whole song

  • There are two guitar parts, so a rhythm guitar can be added.
  • Capo on 3rd fret. just strum the chords if you cant pick it.
  • Full fingerstyle version based off Andrew Foys arrangement.
  • This version has a whole song guitar solo with all... Show more
  • This tab will show you how to fingerpick every sin... Show more
  • This tab is based off the studio recorded version ... Show more
  • Please if you don't understand the tab feel free to message me :D.
  • Because it is based on my hearing.
  • The original song is played without a capo, but th... Show more
  • This is an extremely simple way to play this and s... Show more

Interactive

Video

  • Video lesson on how to play the latest song from j... Show more
  • Super quick guitar lesson detailing the chords and... Show more
  • High quality, easy to follow video lesson.
  • This is Mattias Krantz fingerstyle guitar tutorial... Show more
10,417 views 129 this week
6 commentsread comments
1 2 3 4 5
x 11
add to favorites
×
Save as Personal and add changes to this tab that will be seen only by you. Learn more ›
×
You can save this tab as Personal to edit and correct it or add notes. All changes will be seen only by you. Learn more »
launch autoscroll
font size
0
reset
how to read this tab
guitar tuner
edit
Autoscroll
slow
fast
+/-
esc
set tempo
stop
About this tab version
This version has a whole song guitar solo with all the choruses and verses labeled. Was this info helpful? Yes No
[Intro]

e|--------x-------------|--------x-------------|--------x-------------|--------x-------------|
B|------3-x--0----------|------3-x--0----------|------3-x--0----------|------1-x--1-----1p0--|
G|------0-x--0-----0----|------2-x--2-----2----|------0-x--0-----0----|------0-x--0----------|
D|--------x-------------|--------x--0---0---0--|--------x-------------|--------x-------------|
A|--------x-------------|--------x-------------|--------x-------------|--3-----x--3---3------|
E|--3-----x--3---3---3--|--2-----x-------------|--0-----x--0---0---0--|--------x-------------|


[Verse]

e|-------------------------------------------------------------|
B|-----3-3-0-0--------3-3-0-0-----3-3-0-0--------1-1p0-1p0-----|
G|-----0-0-0-0-2p0----2-2-2-2-----0-0-0-0-2p0----0-0-----------|
D|----------------------------0--------------------------------|
A|---------------------------------------------3---------------|
E|--3---------------2----------0-------------------------------|

e|-------------------------------------------------------------|
B|-----3-3-0-0--------3/5-0-0------3-3-0-0--------1-1p0-1p0----|
G|-----0-0-0-0-2p0----2/4-0-0-2----0-0-0-0-2p0----0-0----------|
D|-----------------------------0-------------------------------|
A|----------------------------------------------3--------------|
E|--3---------------2-----------0------------------------------|

Alternative for Verse
e|-------------------------------------------------------------|
B|-----3-3-0-0--------3-3-0-0-----3-3-0-0--------1-1-0-1p0-----|
G|-------------2p0-----------0------------2p0------------------|
D|----------------------------0--------------------------------|
A|---------------------------------------------3---------------|
E|--3---------------2----------0-------------------------------|

e|-------------------------------------------------------------|
B|-----3-3-0-0--------3/5-0-0-----3-3-0-0--------1-1-0-1p0-----|
G|-------------2p0-----------2------------2p0------------------|
D|----------------------------0--------------------------------|
A|---------------------------------------------3---------------|
E|--3---------------2----------0-------------------------------|


[Pre-Chorus]

e|-------------------------------------------------------------|
B|-------------------------------------------------------------|
G|-------0---0-2-0-------0-0--0-0-2-4---4-2-4/5-4-2-0-0--------|
D|----0h2-0h2---------0h2-2----2-------------------------------|
A|------------------5--------------------------------3---------|
E|--3---------------------------------0------------------------|

e|------------------------------------------------------3-------|
B|-------------------------------------------------------1-0----|
G|-------0---0-2-0-------0-0--0-0-2-4---4-2-4/5-4-2-0-0---------|
D|----0h2-0h2---------0h2-2----2--------------------------------|
A|------------------5--------------------------------3-3--------|
E|--3---------------------------------0-------------------------|


[Chorus]

e|-------------------------------------------------------------|
B|-----3-3-0-0--------3-3-0-0-----3-3-0-0--------1-1p0-1p0-----|
G|-----0-0-0-0-2p0----2-2-2-2-----0-0-0-0-2p0----0-0-----------|
D|----------------------------0--------------------------------|
A|---------------------------------------------3---------------|
E|--3---------------2----------0-------------------------------|

e|-------------------------------------------------------------|
B|-----3-3-0-0--------3/5-0-0------3-3-0-0--------1-1p0-1p0----|
G|-----0-0-0-0-2p0----2/4-0-0-2----0-0-0-0-2p0----0-0----------|
D|-----------------------------0-------------------------------|
A|----------------------------------------------3--------------|
E|--3---------------2-----------0------------------------------|

e|--2-3------------------2-3---------8-7----------|
B|------3-0-3---1-0---0------3-0---------10-8-----|
G|------------------2------------7----------------|
D|------------0-----------------------------------|
A|------------------------------------------------|
E|--3--------------------0---------8--------------|


[Verse]

e|-------------------------------------------------------------|
B|-----3-3-0-0--------3-3-0-0-----3-3-0-0--------1-1p0-1p0-----|
G|-----0-0-0-0-2p0----2-2-2-2-----0-0-0-0-2p0----0-0-----------|
D|----------------------------0--------------------------------|
A|---------------------------------------------3---------------|
E|--3---------------2----------0-------------------------------|

e|-------------------------------------------------------------|
B|-----3-3-0-0--------3/5-0-0------3-3-0-0--------1-1p0-1p0----|
G|-----0-0-0-0-2p0----2/4-0-0-2----0-0-0-0-2p0----0-0----------|
D|-----------------------------0-------------------------------|
A|----------------------------------------------3--------------|
E|--3---------------2-----------0------------------------------|


[Pre-Chorus]
e|------------------------------------------------------------------|
B|------------------------------------------------------------------|
G|-------0---0-2-0-------0-0--0-0-2-4---4-2-4/5-4-2-0-0-------------|
D|----0h2-0h2---------0h2-2----2------------------------------------|
A|------------------5--------------------------------3--------------|
E|--3---------------------------------0-----------------------------|

e|------------------------------------------------------3--------|
B|-------------------------------------------------------1-0-----|
G|-------0---0-2-0-------0-0--0-0-2-4---4-2-4/5-4-2-0-0----------|
D|----0h2-0h2---------0h2-2----2---------------------------------|
A|------------------5--------------------------------3-3---------|
E|--3---------------------------------0--------------------------|


[Chorus]

e|-------------------------------------------------------------|
B|-----3-3-0-0--------3-3-0-0-----3-3-0-0--------1-1p0-1p0-----|
G|-----0-0-0-0-2p0----2-2-2-2-----0-0-0-0-2p0----0-0-----------|
D|----------------------------0--------------------------------|
A|---------------------------------------------3---------------|
E|--3---------------2----------0-------------------------------|

e|-------------------------------------------------------------|
B|-----3-3-0-0--------3/5-0-0------3-3-0-0--------1-1p0-1p0----|
G|-----0-0-0-0-2p0----2/4-0-0-2----0-0-0-0-2p0----0-0----------|
D|-----------------------------0-------------------------------|
A|----------------------------------------------3--------------|
E|--3---------------2-----------0------------------------------|

e|--2-3------------------2-3-----------------|
B|------3-0-3---1-0---0------3-0--1p0--------|
G|------------------2----------------2-0-----|
D|------------0------------------------------|
A|-------------------------------3-----------|
E|--3--------------------0-------------------|


[Bridge]

e|--------------------------------------------------------------|
B|--------------------------------------------------------------|
G|----------------------------------------0---------------------|
D|----0-0----------0-0-------0-0---------2----------------------|
A|--------2-2-0--------2-2-------2-2-0----3-3-3-3-2-------------|
E|--3-----------3-2--------0-----------3------------------------|


[Chorus]

e|-------------------------------------------------------------|
B|-----3-3-0-0--------3-3-0-0-----3-3-0-0--------1-1p0-1p0-----|
G|-----0-0-0-0-2p0----2-2-2-2-----0-0-0-0-2p0----0-0-----------|
D|----------------------------0--------------------------------|
A|---------------------------------------------3---------------|
E|--3---------------2----------0-------------------------------|

e|-------------------------------------------------------------|
B|-----3-3-0-0--------3/5-0-0------3-3-0-0--------1-1p0-1p0----|
G|-----0-0-0-0-2p0----2/4-0-0-2----0-0-0-0-2p0----0-0----------|
D|-----------------------------0-------------------------------|
A|----------------------------------------------3--------------|
E|--3---------------2-----------0------------------------------|

e|--2-3------------------2-3-5-0-5-3-3p2-0------------1-2-------|
B|------3-0-3---1-0---0-------------------3-3-0----------3-0-3--|
G|------------------2--------------------------2-0-4------------|
D|------------0--------------------------------------0----------|
A|---------------------------------3-------------3--------------|
E|--3--------------------0----------------3-----------0---------|

e|--------------------------------------------------------------|
B|--1p0---------------------------------------------------------|
G|------2-0-----------------------------------------------------|
D|-0------------------------------------------------------------|
A|--------------------------------------------------------------|
E|----------3---------------------------------------------------|


****************************************************************

x - mute
p - pull off
h - hammer on
/ - slide

****************************************************************
Suggest correction
Creating personal tab
Creating personal tab
You can edit any tab online and save it as your Personal.

You can edit, replace or remove any tab part or add personal notes – all changes will be seen only by you.

Personal tabs can be accessed anytime from any device, even offline.
Learn more »
comments
print report bad tab
6 comments total. Showing first comments.
+1 reply
jurian.webbe 10 Dec 10, 2016 05:46 AM

Great work! Sounds really good!

+1 reply
xxmylesxx3 10 Jan 01, 2017 09:59 PM

good job at tabbing
this song is very very good

+1 reply
HUGO98 167 Feb 05, 2017 07:28 AM

Love this version! Sounds amazing! :D

guest
You may want to rate the tab now too:
select rating
Wanna post a correction for this tab? Suggest correction