Oops, an error
Loading. Please wait.
We have Chord Pro version of Say You Wont Let Go.
It's the closest thing you can get to the original song and it has interactive parts. Check out the tab »
×

Say You Wont Let Go tab

version 8
version 8

Whole song

  • There are two guitar parts, so a rhythm guitar can be added.
  • Capo on 3rd fret. just strum the chords if you cant pick it.
  • Full fingerstyle version based off Andrew Foys arrangement.
  • This version has a whole song guitar solo with all... Show more
  • This tab will show you how to fingerpick every sin... Show more
  • This tab is based off the studio recorded version ... Show more
  • Please if you don't understand the tab feel free to message me :D.
  • Because it is based on my hearing.
  • The original song is played without a capo, but th... Show more
  • This is an extremely simple way to play this and s... Show more

Interactive

Video

  • Video lesson on how to play the latest song from j... Show more
  • Super quick guitar lesson detailing the chords and... Show more
  • High quality, easy to follow video lesson.
  • This is Mattias Krantz fingerstyle guitar tutorial... Show more
2,164 views 21 this week
1 commentread comment
1 2 3 4 5
x 3
add to favorites
×
Save as Personal and add changes to this tab that will be seen only by you. Learn more ›
×
You can save this tab as Personal to edit and correct it or add notes. All changes will be seen only by you. Learn more »
launch autoscroll
font size
0
reset
how to read this tab
guitar tuner
edit
Autoscroll
slow
fast
+/-
esc
set tempo
stop
         Bm7

e|---|---|---|---|
B|---|---|-x-|---|
G|---|-x-|---|---|
D|---|---|---|---|
A|---|-x-|---|---|
x|---|---|---|---|


[Intro, Verse 1, Pre-Chorus, & end of Chorus]

  G                  Dsus2              Em7    Em          C
e|------------------|------------------|------------------|-------------------|
B|-----3--0---------|-----3--0---------|-----3--0---------|-----1--1-----1p0--|
G|-----0--0-----0---|-----2--2-----2p0-|-----0--0-----0---|-----0--0----------|
D|------------------|-0------0---0---0-|------------------|-------------------|
A|------------------|------------------|------------------|-3------3---3------|
E|-3------3---3---3-|------------------|-0------0---0---0-|-------------------|


[End of Chorus]
Just say you won't let go
Just say you won't let go

  G                  Dsus2              Em7    Em          C
e|------------------|------------------|------------------|-------------------|
B|-----3--3---------|-----3--3---------|-----3--3---------|-----1--1-----1p0--|
G|-----0--0---------|-----2--2---------|-----0--0---------|-----0--0----------|
D|------------------|-0------0---------|------------------|-------------------|
A|------------------|------------------|------------------|-3------3---3------|
E|-3------3---------|------------------|-0------0---------|-------------------|


[Verse 2]

  G                  Dsus2              Em7    Em          C
e|------------------|------------------|------------------|-------------------|
B|-----3--0---------|-----3--0---------|-----3--0---------|-----1--1-----1p0--|
G|-----0--0---------|-----2--2---------|-----0--0---------|-----0--0----------|
D|------------------|-0------0---------|------------------|-------------------|
A|------------------|------------------|------------------|-3------3---3------|
E|-3------3---------|------------------|-0------0---------|-------------------|

  G                  Dsus2              Em7    Em          C
e|------------------|------------------|------------------|-------------------|
B|-----3--0---------|-----3--0---------|-----3--0---------|-----1--1-----1p0--|
G|-----0--0-----0---|-----2--2-----2p0-|-----0--0-----0---|-----0--0----------|
D|------------------|-0------0---0---0-|------------------|-------------------|
A|------------------|------------------|------------------|-3------3---3------|
E|-3------3---3---3-|------------------|-0------0---0---0-|-------------------|


[Piano Chords @ 2:31]
Bb F Gm Eb

[Guitar Chords Alternative]
G Bm7 Em C

[or you can play a variation of the verse]

  G                  Dsus2              Em7    Em          C
e|------------------|------------------|------------------|-------------------|
B|-----3--3---------|-----3--3---------|-----3--3---------|-----1--1----------|
G|-----0--0---------|-----2--2---------|-----0--0---------|-----0--0----------|   x2
D|------------------|-0------0---------|------------------|-------------------|
A|------------------|------------------|------------------|-3------3----------|
E|-3------3---------|------------------|-0------0---------|-------------------|


[Outro]

  G                  Dsus2              Em7    Em          C
e|------------------|------------------|------------------|-------------------|
B|-----3--3---------|-----3--3---------|-----3--3---------|-----1--1-----1p0--|
G|-----0--0---------|-----2--2---------|-----0--0---------|-----0--0----------|   x3
D|------------------|-0------0---------|------------------|-------------------|
A|------------------|------------------|------------------|-3------3----------|
E|-3------3---------|------------------|-0------0---------|-------------------|



************************************

| p  Pull-off

************************************

            
            
Suggest correction
Creating personal tab
Creating personal tab
You can edit any tab online and save it as your Personal.

You can edit, replace or remove any tab part or add personal notes – all changes will be seen only by you.

Personal tabs can be accessed anytime from any device, even offline.
Learn more »
Give kudos to tab author, rate the tab!
1 2 3 4 5
comments
print report bad tab
1 comment total.
-1 reply
Kanteaba 10 Jun 26, 2017 02:27 PM

didn't like this contribution

guest
You may want to rate the tab now too:
select rating
Wanna post a correction for this tab? Suggest correction