Oops, an error
Loading. Please wait.
We have an official Say You Wont Let Go tab made by UG professional guitarists. Check out the tab »
×

Say You Wont Let Go tab

version 9
version 9

Whole song

  • There are two guitar parts, so a rhythm guitar can be added.
  • Capo on 3rd fret. just strum the chords if you cant pick it.
  • Full fingerstyle version based off Andrew Foys arrangement.
  • This version has a whole song guitar solo with all... Show more
  • This tab will show you how to fingerpick every sin... Show more
  • This tab is based off the studio recorded version ... Show more
  • Please if you don't understand the tab feel free to message me :D.
  • Because it is based on my hearing.
  • The original song is played without a capo, but th... Show more
  • This is an extremely simple way to play this and s... Show more

Interactive

Video

  • Video lesson on how to play the latest song from j... Show more
  • Super quick guitar lesson detailing the chords and... Show more
  • High quality, easy to follow video lesson.
  • This is Mattias Krantz fingerstyle guitar tutorial... Show more
895 views 9 this week
no commentswrite comment
1 2 3 4 5
2 more votes to show rating
add to favorites
×
Save as Personal and add changes to this tab that will be seen only by you. Learn more ›
×
You can save this tab as Personal to edit and correct it or add notes. All changes will be seen only by you. Learn more »
launch autoscroll
font size
0
reset
how to read this tab
guitar tuner
edit
Autoscroll
slow
fast
+/-
esc
set tempo
stop
About this tab version
Please if you don't understand the tab feel free to message me :D. Was this info helpful? Yes No
Say You Won't Let Go - James Arthur
Arranged by : Carlo James del Valle
Tuning : Standard
Capo : 3rd Fret


[Intro]

e|----------------------|----------------------|-------------------|---------------------|
B|-----3-----0----------|-----3-----0----------|-----3-----0-------|-----1-----1----1p0--|
G|-----0-----0-----2p0--|-----2-----2-----1s2--|-----0-----0--2p0--|-----0-----0---------|
D|-----0-----0----------|--0--------0--0-------|-----2-----2-------|-----2-----2---------|
A|----------------------|----------------------|-------------------|--3--------3--3------|
E|--3-----x--3--3-------|--------x-------------|--0-----x--0--0----|--------x------------|


[Verse]

    I met you in the dark....
e|-------------------------|-------------------------|-------------------------|---------------------|
B|-----3--3-----0----------|-----3--3-----0----------|-----3--3-----0----------|--1-----1p0--1p0--0--|
G|-----0--------------2p0--|-----2--------------1s2--|-----0--------------2p0--|--0---------------0--|
D|-----0-------------------|--0--------0-----0-------|-----2-------------------|--2------------------|
A|-------------------------|-------------------------|-------------------------|--3--3-------3-------|
E|--3--------3-----3-------|-------------------------|--0--------0-----0-------|---------------------|

e|-------------------------|--------0----------------|-------------------------|---------------------|
B|-----3--3-----0----------|-----3--------0----------|-----3--3-----0----------|--1-----1p0--1p0--0--|
G|-----0--------------2p0--|-----2--------------1s2--|-----0--------------2p0--|--0---------------0--|
D|-----0-------------------|--0--------0-----0-------|-----2-------------------|--2------------------|
A|-------------------------|-------------------------|-------------------------|--3--3-------3-------|
E|--3--------3-----3-------|-------------------------|--0--------0-----0-------|------------------x--|



[Pre-Chorus]

    Then you smiled over your shoulder......
e|-----------------------------------|-------------------------------------|
B|-----------------------------------|----------------------------------0--|
G|-------------0----------0--0h2--0--|-------------0-------0----0--0h2-----|
D|-----0h2-----------0h2-------------|-----0h2-----------0----0------------|
A|-----------------------------------|-------------------------------------|
E|--3-------x-----3----------x-------|--2-------x-----2------------x-------|

e|----------------------------|----------------------|
B|-----0-----0--0h1--0--0-----|--------0-----1--1p0--|
G|-----0--2-----0-------0--0--|-----0--0-------------|
D|-----2--------2-------------|----------------------|
A|--2-----------2-------------|--3--------3----------|
E|--------x-------------x-----|--------x--------x----|
     And you asked me to stay over....
e|-----------------------------------|-----------------------------------|
B|-----------------------------------|--------------------------------0--|
G|-------------0----------0--0h2--0--|-------------0----------0--0h2-----|
D|-----0h2-----------0h2-------------|-----0h2-----------0h2-------------|
A|-----------------------------------|-----------------------------------|
E|--3-------x-----3----------x-------|--2-------x-----2------------------|

e|----------------------------|----------------------|
B|-----0-----0--0h1--0--0-----|--------0-----1--1p0--|
G|-----0--2-----0-------0--0--|-----0--0-------------|
D|-----2--------2-------------|----------------------|
A|--2-----------2-------------|--3--------3----------|
E|--------x-------------x-----|--------x--------x----|

[Chorus]

      I knew I loved you then.....
e|-------------------------|-------------------------|-------------------------|---------------------|
B|-----3--3--0--0----------|-----3--3-----0----------|-----3--3--0--0----------|--1-----1p0--1p0--0--|
G|-----0--0-----------2p0--|-----2--2-----------1s2--|-----0--0-----------2p0--|--0---------------0--|
D|-----0-------------------|--0--------0-----0--0----|-----2-------------------|--2------------------|
A|-------------------------|-------------------------|-------------------------|--3--3-------3-------|
E|--3-----x--3-----3----x--|--------x-----------x----|--0-----x--0-----0----x--|--------x---------x--|

e|-------------------------|--------0----------------|-------------------------|---------------------|
B|-----3--3--0--0----------|-----3--3-----0----------|-----3--3--0--0----------|--1-----1p0--1p0--0--|
G|-----0--0-----------2p0--|-----2--------------1s2--|-----0--0-----------2p0--|--0---------------0--|
D|-----0-------------------|--0--------0-----0--0----|-----2-------------------|--2------------------|
A|-------------------------|-------------------------|-------------------------|--3--3-------3-------|
E|--3-----x--3-----3----x--|--------x-----------x----|--0-----x--0-----0----x--|--------x---------x--|

      Just say you won't let go.....
e|-----2--3--------------|---------------------|-----2--3--------------|-----------------------|
B|--3-----------3--0--3--|------3--3-----3--3--|--3-----------3--0--3--|------------1-----1p0--|
G|--------------------0--|----2----2--------2--|--------------------0--|------0----------------|
D|-----------------------|--0------0--0--------|-----------------------|----2------------------|
A|-----------------------|---------------------|-----2--------2--------|--3---------3--3-------|
E|-----3-----x--3-----x--|---------x--------x--|-----------x--------x--|---------x--------x----|


[Verse]

    I wake you up with some breakfast in bed...
e|-------------------------|-------------------------|-------------------------|-------------------|
B|-----3--3-----0----------|-----3--3-----0----------|-----3--3-----0----------|-----1--1-----1p0--|
G|-----0--------------2p0--|-----2--------------1s2--|-----0--------------2p0--|-----0-------------|
D|-----0-------------------|--0--------0-----0-------|-----2-------------------|-----2-------------|
A|-------------------------|-------------------------|-------------------------|--3--------3-------|
E|--3--------3-----3-------|-------------------------|--0--------0-----0-------|-------------------|

e|-------------------------|--------0----------------|-------------------------|---------------------|
B|-----3--3-----0----------|-----3--------0----------|-----3--3-----0----------|--1-----1p0--1p0--0--|
G|-----0--------------2p0--|-----2--------------1s2--|-----0--------------2p0--|--0---------------0--|
D|-----0-------------------|--0--------0-----0-------|-----2-------------------|--2------------------|
A|-------------------------|-------------------------|-------------------------|--3--3-------3-------|
E|--3--------3-----3-------|-------------------------|--0--------0-----0-------|------------------x--|


[Pre-Chorus]

    When you looked over your shoulder......
e|-----------------------------------|-----------------------------------|
B|-----------------------------------|--------------------------------0--|
G|-------------0----------0--0h2--0--|-------------0----------0--0h2-----|
D|-----0h2-----------0h2-------------|-----0h2-----------0h2-------------|
A|-----------------------------------|-----------------------------------|
E|--3-------x-----3----------x-------|--2-------x-----2------------------|

e|----------------------------|----------------------|
B|-----0-----0--0h1--0--0-----|--------0-----3--1p0--|
G|-----0--2-----0-------0--0--|-----0--0-------------|
D|-----2--------2-------------|----------------------|
A|--2-----------2-------------|--3--------3----------|
E|--------x-------------x-----|--------x--------x----|

e|-----------------------------------|-------------------------------------|
B|-----3--3--------------------------|----------------------------------0--|
G|-----0--0----------0--0h2--0-------|-------------0-------0----0--0h2-----|
D|-----0--------0h2------------------|-----0h2-----------0----0------------|
A|-----------------------------------|-------------------------------------|
E|--3-----x--3----------x------------|--2-------x-----2------------x-------|

e|----------------------------|----------------------|
B|----3--3-----1-----0--------|--------0-----1--1p0--|
G|----0--0--------------0--0--|-----0--0-------------|
D|----2-----------------0-----|----------------------|
A|--2-------2-----2-----------|--3--------3----------|
E|-------x--------------x-----|--------x--------x----|


[Chorus]

      I knew I loved you then.....
e|-------------------------|-------------------------|-------------------------|---------------------|
B|-----3--3--0--0----------|-----3--3-----0----------|-----3--3--0--0----------|--1-----1p0--1p0--0--|
G|-----0--0-----------2p0--|-----2--2-----------1s2--|-----0--0-----------2p0--|--0---------------0--|
D|-----0-------------------|--0--------0-----0--0----|-----2-------------------|--2------------------|
A|-------------------------|-------------------------|-------------------------|--3--3-------3-------|
E|--3-----x--3-----3----x--|--------x-----------x----|--0-----x--0-----0----x--|--------x---------x--|

e|-------------------------|--------0----------------|-------------------------|---------------------|
B|-----3--3--0--0----------|-----3--3-----0----------|-----3--3--0--0----------|--1-----1p0--1p0--0--|
G|-----0--0-----------2p0--|-----2--------------1s2--|-----0--0-----------2p0--|--0---------------0--|
D|-----0-------------------|--0--------0-----0--0----|-----2-------------------|--2------------------|
A|-------------------------|-------------------------|-------------------------|--3--3-------3-------|
E|--3-----x--3-----3----x--|--------x-----------x----|--0-----x--0-----0----x--|--------x---------x--|

      Just say you won't let go.....
e|-----2--3--------------|---------------------|-----2--3--------------|-----------------------|
B|--3-----------3--0--3--|------3--3-----3--3--|--3-----------3--0--3--|------------1-----1p0--|
G|--------------------0--|----2----2--------2--|--------------------0--|------0----------------|
D|-----------------------|--0------0--0--------|-----------------------|----2------------------|
A|-----------------------|---------------------|-----2--------2--------|--3---------3--3-------|
E|-----3-----x--3-----x--|---------x--------x--|-----------x--------x--|---------x--------x----|


[Bridge]
       I wanna live with you........
e|-------------------------|----------------------------|---------------------------|---------------------|
B|-----3--3-----0----------|-----3-----3-----0----------|-----3--3-3-----0----------|--1-----1p0--1p0--0--|
G|-----0--------------2p0--|-----2-----------------1s2--|-----0----------------2p0--|--0---------------0--|
D|-----0-------------------|--0-----0-----0-----0-------|-----2---------------------|--2------------------|
A|-------------------------|----------------------------|---------------------------|--3--3-------3-------|
E|--3--------3-----3-------|----------------------------|--0----------0-----0-------|------------------x--|



[Chorus]
      I'm gonna love you till.....
e|-------------------------|--------0----------------|-------------------------|---------------------|
B|-----3--3--0--0----------|-----3--3-----0----------|-----3--3--0--0----------|--1-----1p0--1p0--0--|
G|-----0--0-----------2p0--|-----2--------------1s2--|-----0--0-----------2p0--|--0---------------0--|
D|-----0-------------------|--0--------0-----0--0----|-----2-------------------|--2------------------|
A|-------------------------|-------------------------|-------------------------|--3--3-------3-------|
E|--3-----x--3-----3----x--|--------x-----------x----|--0-----x--0-----0----x--|--------x---------x--|

e|-------------------------|--------0----------------|-------------------------|---------------------|
B|-----3--3--0--0----------|-----3--3-----0----------|-----3--3--0--0----------|--1-----1p0--1p0--0--|
G|-----0--0-----------2p0--|-----2--------------1s2--|-----0--0-----------2p0--|--0---------------0--|
D|-----0-------------------|--0--------0-----0--0----|-----2-------------------|--2------------------|
A|-------------------------|-------------------------|-------------------------|--3--3-------3-------|
E|--3-----x--3-----3----x--|--------x-----------x----|--0-----x--0-----0----x--|--------x---------x--|
    
      Just say you won't let go.....
e|-----2--3--------------|---------------------|------2--3-----3s5--0--3--|-----0h2p0--0-------------|
B|--3-----------3--0--3--|------3--3-----3--3--|---3-------------------0--|------------0-----0h3--0--|
G|--------------------0--|----2----2--------2--|--------------------------|-----------------------0--|
D|-----------------------|--0------0--0--------|--------------------------|--------------------------|
A|-----------------------|---------------------|------2--------2----------|--3------------3----------|
E|-----3-----x--3-----x--|---------x--------x--|------------x----------x--|------------x----------x--|


[Outro]
      Just say you won't let go.....
e|-----0------------------|---------------------|-----2--3--------------|-----------------------|
B|--3-----3-----0---------|------3--3-----3--3--|--3-----------3--0--3--|------------1-----1p0--|
G|-----------------0h2-2--|----2----2--------2--|--------------------0--|------0----------------|
D|---------------------0--|--0------0--0--------|-----------------------|----2------------------|
A|------------------------|---------------------|-----2--------2--------|--3---------3--3-------|
E|-----3-----x--3------x--|---------x--------x--|-----------x--------x--|---------x--------x----|


************************************

| x   Dead note
| h   Hammer-on
| p   Pull-off
| s   Slide

************************************

            
            
Suggest correction
Creating personal tab
Creating personal tab
You can edit any tab online and save it as your Personal.

You can edit, replace or remove any tab part or add personal notes – all changes will be seen only by you.

Personal tabs can be accessed anytime from any device, even offline.
Learn more »
Give kudos to tab author, rate the tab!
1 2 3 4 5
comments
print report bad tab
guest
You may want to rate the tab now too:
select rating
Wanna post a correction for this tab? Suggest correction