Oops, an error
Loading. Please wait.

Best Fake Smile Bass Tab

version 1
version 1

Whole song

Interactive

187 views 24 this week
no commentswrite comment
1 2 3 4 5
3 more votes to show rating
add to favorites
launch autoscroll
font size
0
reset
guitar tuner
Autoscroll
slow
fast
+/-
esc
set tempo
stop
Help us to improve Ultimate-Guitar.com Take our survey!
×
Author
Artist : James Bay
Album : Chaos and the Calm
Song : Best Fake Smile



[Intro]
  2/4
G|------------|------------------------|------------------------|------------------------|
D|------------|------------------------|------------------------|------------------------|
A|--------/9--|------9r----------------|---------------------9--|------9r----------------|
E|------------|------------------------|------------------------|------------------------|
  1  +  2  +   1  +  2  +  3  +  4  +   1  +  2  +  3  +  4  +   1  +  2  +  3  +  4  + 

G|------------------------|------------------------|------------------------|------------------------|
D|------------------------|------------------------|------------------------|------------------------|
A|---------------------6--|------6r-------------4--|------4r-------------9--|------9r-------------9r-|
E|------------------------|------------------------|------------------------|------------------------|
  1  +  2  +  3  +  4  +   1  +  2  +  3  +  4  +   1  +  2  +  3  +  4  +   1  +  2  +  3  +  4  +  

G|------------------------|------------------------|------------------------|------------------------|
D|------------------------|------------------------|------------------------|------------------------|
A|---------------9--9--9r-|------------------------|---------------9--9--9r-|------------------------|-|
E|------------------------|------------------------|------------------------|------------------------| |
  1  +  2  +  3  +  4  +   1  +  2  +  3  +  4  +   1  +  2  +  3  +  4  +   1  +  2  +  3  +  4  +    |
                                                                                                       | x2
G|------------------------|------------------------|------------------------|------------------------| |
D|------------------------|------------------------|------------------------|------------------------|-|
A|---------------6--6--6r-|---------------------4r-|---------------9--9--9r-|---------------------9r-|
E|------------------------|------------------------|------------------------|------------------------|
  1  +  2  +  3  +  4  +   1  +  2  +  3  +  4  +   1  +  2  +  3  +  4  +   1  +  2  +  3  +  4  + 

G|------------------------|
D|------------------------|
A|------------------------|
E|------------------------|
  1  +  2  +  3  +  4  +   


[Chorus]

G|11-11-11-11-11-11-11-11-|11-11-11-11-11/8--------|------------------------|------------------------|
D|------------------------|------------------11----|------------------------|------------------------|
A|------------------------|---------------------9--|9--9--9--9--9--9--9--9--|9--9--9--9--9--9--9-/6--|
E|------------------------|------------------------|------------------------|------------------------|
  1  +  2  +  3  +  4  +   1  +  2  +  3  +  4  +   1  +  2  +  3  +  4  +   1  +  2  +  3  +  4  +
  
G|------------------------|------------------------|------------------------|------------------------|
D|------------------------|------------------------|------------------------|------------------------|
A|6--6--6--6--6--6--6--4--|4--4--4--4--4--4--4-/9--|9--9--9--9--9--9--9--9--|9--9--9--9--11-9-----9--|
E|------------------------|------------------------|------------------------|------------------11----|
  1  +  2  +  3  +  4  +   1  +  2  +  3  +  4  +   1  +  2  +  3  +  4  +   1  +  2  +  3  +  4  +  

G|------------------------|------------------------|------------------------|------------------------|
D|------------------------|------------------------|------------------------|------------------------|
A|9--9--9--9--9--9--9--9--|9--9--9--9--11-9--13-9--|9--9--9--9--9--9--9--9--|9--9--9--9--11-9--13/6--|
E|------------------------|------------------------|------------------------|------------------------|
  1  +  2  +  3  +  4  +   1  +  2  +  3  +  4  +   1  +  2  +  3  +  4  +   1  +  2  +  3  +  4  +
 
G|------------------------|------------------------|------------------------|------------------------|
D|------------------------|------------------------|------------------------|------------------------|
A|6--6--6--6--6--6--6--4--|4--4--4--4--4--4--4-----|------------------------|--------------/9--9--9r-|
E|------------------------|---------------------2--|2--2--2--2--2--2--2--2--|2--2--2--2--2-----------|
  1  +  2  +  3  +  4  +   1  +  2  +  3  +  4  +   1  +  2  +  3  +  4  +   1  +  2  +  3  +  4  +  
 

[Verse]

G|------------------------|------------------------|
D|------------------------|------------------------|
A|------------------------|---------------9--9--9r-| x3
E|------------------------|------------------------|
  1  +  2  +  3  +  4  +   1  +  2  +  3  +  4  + 
  
G|------------------------|------------------------|------------------------|------------------------|
D|------------------------|------------------------|------------------------|------------------------|
A|------------------------|---------------6--6--6r-|---------------------4r-|---------------9--9--9r-|
E|------------------------|------------------------|------------------------|------------------------|
  1  +  2  +  3  +  4  +   1  +  2  +  3  +  4  +   1  +  2  +  3  +  4  +   1  +  2  +  3  +  4  +  

G|------------------------|------------------------|------------------------|------------------------|
D|------------------------|------------------------|------------------------|------------------------|
A|---------------------9r-|---------------9--9--9r-|------------------------|---------------9--9--9r-|
E|------------------------|------------------------|------------------------|------------------------|
  1  +  2  +  3  +  4  +   1  +  2  +  3  +  4  +   1  +  2  +  3  +  4  +   1  +  2  +  3  +  4  +  

G|------------------------|------------------------|------------------------|------------------------|
D|------------------------|------------------------|------------------------|------------------------|
A|------------------------|---------------9--9--9r-|------------------------|---------------6--6--6r-|
E|------------------------|------------------------|------------------------|------------------------|
  1  +  2  +  3  +  4  +   1  +  2  +  3  +  4  +   1  +  2  +  3  +  4  +   1  +  2  +  3  +  4  + 

G|------------------------|------------------------|------------------------|------------------------|
D|------------------------|------------------------|------------------------|------------------------|
A|---------------------4r-|---------------9--9--9r-|---------------------9r-|------------------------|
E|------------------------|------------------------|------------------------|------------------------|
  1  +  2  +  3  +  4  +   1  +  2  +  3  +  4  +   1  +  2  +  3  +  4  +   1  +  2  +  3  +  4  +  

 
[Chorus]

G|11-11-11-11-11-11-11-11-|11-11-11-11-11/8--------|------------------------|------------------------|
D|------------------------|------------------11----|------------------------|------------------------|
A|------------------------|---------------------9--|9--9--9--9--9--9--9--9--|9--9--9--9--9--9--9-/6--|
E|------------------------|------------------------|------------------------|------------------------|
  1  +  2  +  3  +  4  +   1  +  2  +  3  +  4  +   1  +  2  +  3  +  4  +   1  +  2  +  3  +  4  +
  
G|------------------------|------------------------|------------------------|------------------------|
D|------------------------|------------------------|------------------------|------------------------|
A|6--6--6--6--6--6--6--4--|4--4--4--4--4--4--4-/9--|9--9--9--9--9--9--9--9--|9--9--9--9--11-------9--|
E|------------------------|------------------------|------------------------|---------------9--11----|
  1  +  2  +  3  +  4  +   1  +  2  +  3  +  4  +   1  +  2  +  3  +  4  +   1  +  2  +  3  +  4  +  

G|------------------------|------------------------|------------------------|------------------------|
D|------------------------|------------------------|------------------------|------------------------|
A|9--9--9--9--9--9--9--9--|9--9--9--9--11-9--13-9--|9--9--9--9--9--9--9--9--|9--9--9--9--11-9--13/6--|
E|------------------------|------------------------|------------------------|------------------------|
  1  +  2  +  3  +  4  +   1  +  2  +  3  +  4  +   1  +  2  +  3  +  4  +   1  +  2  +  3  +  4  +
 
G|------------------------|------------------------|------------------------|------------------------|
D|------------------------|------------------------|------------------------|------------------------|
A|6--6--6--6--6--6--6--4--|4--4--4--4--4--4--4-----|------------------------|------------------------|
E|------------------------|---------------------2--|2--2--2--2--2--2--2--2--|2--2--2--2--2--2--2--2--|
  1  +  2  +  3  +  4  +   1  +  2  +  3  +  4  +   1  +  2  +  3  +  4  +   1  +  2  +  3  +  4  +  

[Bridge]
                                                    ________________________*
G|------------------------|------------------------|------------------------|------------------------|
D|------------------------|------------------------|------------------------|------------------------|
A|------------------------|------------------------|6--6--6--6--6--6--6--6--|4--4--4--4--4--4--4--4--| x3
E|7--7--7--7--7--7--7--7--|7--7--7--7--7--7--7--7--|------------------------|------------------------|
  1  +  2  +  3  +  4  +   1  +  2  +  3  +  4  +   1  +  2  +  3  +  4  +   1  +  2  +  3  +  4  +  
 
G|------------------------|------------------------|------------------------|------------------------|
D|------------------------|------------------------|------------------------|------------------------|
A|------------------------|------------------------|------------------------|--------------------/9--|
E|7--7--7--7--7--7--7--7--|7--7--7--7--7--7--7--7--|7--7--7--7--7--7--7--7--|7--7--7--7--7--7--7-----|
  1  +  2  +  3  +  4  +   1  +  2  +  3  +  4  +   1  +  2  +  3  +  4  +   1  +  2  +  3  +  4  +  

G|------------------------|------------------------|------------------------|------------------------|
D|------------------------|------------------------|------------------------|------------------------|
A|------9r----------------|---------------------9--|------9r----------------|---------------------6--|
E|------------------------|------------------------|------------------------|------------------------|
  1  +  2  +  3  +  4  +   1  +  2  +  3  +  4  +   1  +  2  +  3  +  4  +   1  +  2  +  3  +  4  +  

G|------------------------|------------------------|------------------------|------------------------|
D|------------------------|------------------------|------------------------|------------------------|
A|------6r-------------4--|------4r-------------9--|------9r-------------9r-|------------------------|
E|------------------------|------------------------|------------------------|------------------------|
  1  +  2  +  3  +  4  +   1  +  2  +  3  +  4  +   1  +  2  +  3  +  4  +   1  +  2  +  3  +  4  + 

*nb : this is played an octave bellow in the song. You have 3 options :
1. Play it an octave higher (the way I wrote it).
2. Use a five string bass and play on the 4th fret of the B string
3. Tune you bass half-step down (and transpose all the tab) and play an open Eb


[Chorus]

G|11-11-11-11-11-11-11-11-|11-11-11-11-11/8--------|------------------------|------------------------|
D|------------------------|------------------11----|------------------------|------------------------|
A|------------------------|---------------------9--|9--9--9--9--9--9--9--9--|9--9--9--9--9--9--9-/6--|
E|------------------------|------------------------|------------------------|------------------------|
  1  +  2  +  3  +  4  +   1  +  2  +  3  +  4  +   1  +  2  +  3  +  4  +   1  +  2  +  3  +  4  +
  
G|------------------------|------------------------|------------------------|------------------------|
D|------------------------|------------------------|------------------------|------------------------|
A|6--6--6--6--6--6--6--4--|4--4--4--4--4--4--4-/9--|9--9--9--9--9--9--9--9--|9--9--9--9--9--9\-6/-9--|
E|------------------------|------------------------|------------------------|------------------------|
  1  +  2  +  3  +  4  +   1  +  2  +  3  +  4  +   1  +  2  +  3  +  4  +   1  +  2  +  3  +  4  +  

G|------------------------|------------------------|------------------------|------------------------|
D|------------------------|------------------------|------------------------|------------------------|
A|9--9--9--9--9--9--9--9--|9--9--9--9--11-9--13-9--|9--9--9--9--9--9--9--9--|9--9--9--9--11-9--13/6--|
E|------------------------|------------------------|------------------------|------------------------|
  1  +  2  +  3  +  4  +   1  +  2  +  3  +  4  +   1  +  2  +  3  +  4  +   1  +  2  +  3  +  4  +
 
G|------------------------|------------------------|------------------------|------------------------|
D|------------------------|------------------------|------------------------|------------------------|
A|6--6--6--6--6--6--6--4--|4--4--4--4--4--4--4-/9--|9--9--9--9--9--9--9--9--|9--9--9--9--9--9--9--9--|
E|------------------------|------------------------|------------------------|------------------------|
  1  +  2  +  3  +  4  +   1  +  2  +  3  +  4  +   1  +  2  +  3  +  4  +   1  +  2  +  3  +  4  +  

G|------------------------|------------------------|------------------------|------------------------||
D|------------------------|------------------------|------------------------|------------------------||
A|6--6--6--6--6--6--6--4--|4--4--4--4--4--4--4-----|------------------------|------------------------||
E|------------------------|---------------------2--|2--2--2--2--2--2--2--2r-|------------------------||
  1  +  2  +  3  +  4  +   1  +  2  +  3  +  4  +   1  +  2  +  3  +  4  +   1  +  2  +  3  +  4  +  


************************************

| r   Release
| /   Slide up
| \   Slide down

************************************
Suggest correction
Give kudos to tab author, rate the tab!
1 2 3 4 5
comments
print report bad tab
guest
You may want to rate the tab now too:
select rating
Wanna post a correction for this tab? Suggest correction