Oops, an error
Loading. Please wait.

Forever tab

9,638 views 33 this week
2 commentsread comments
1 2 3 4 5
x 11
add to favorites
×
Save as Personal and add changes to this tab that will be seen only by you. Learn more ›
×
You can save this tab as Personal to edit and correct it or add notes. All changes will be seen only by you. Learn more »
launch autoscroll
font size
0
reset
how to read this tab
guitar tuner
edit
Autoscroll
slow
fast
+/-
esc
set tempo
stop
Author
Difficulty
intermediate
Forever – James Bay
A cover of the HAIM song from Radio 1’s Live Lounge. 
Tabbed by: daferet33
Email Address: wferris33@hotmail.com  
Main Chords are D#, F, Gm, A#, and Dm.  

[Verse 1]
e|------------------------------------------|
B|-----8-----------10-----11----15------10--|
G|----8----------10-------12----15------10--|
D|------------------------------------------| X4 This is not exact;
A|--6----------8----------10----13------8---|    but what he does is just small variations on this theme.   
E|------------------------------------------|

[Pre-Chorus]
e|-------------------------------------------------|
B|-----8----8------10----10-----6----6------8----8-|
G|----8----8------10----10-----7----7------8----8--|
D|-------------------------------------------------|
A|--6----6------8-----8------5----5------6----6----|
E|-------------------------------------------------|

                                      x   x   x   x   x   x          x   x
e|------------------------------------------------------------5--------------6-|
B|-----8-----8-------10----10---6-----------------------------6--------------8-|
G|----8------8------10-----10---7-----7---7---7---7---7---7---7------8---8---8-|
D|------------------------------------7---7---7---7---7---7---7------8---8---8-|
A|--6------6------8------8------5-----5---5---5---5---5---5---5------6---6---6-|
E|-----------------------------------------------------------------------------|

[Chorus]
e|-----------------------------------------------------------------------------------------------------|
B|-----8----8----8----8-----10----10----10----10-----11-----11----11-----11------15-----15----10----10-|
G|----8----8----8----8-----10----10----10----10-----12-----12----12-----12-----15------15----10----10--|
D|-----------------------------------------------------------------------------------------------------| X2
A|--6----6----6----6-----8-----8-----8-----8-----10-----10----10-----10-----13------13-----8-----8-----|
E|-----------------------------------------------------------------------------------------------------|

[Verse 2]
e|--------------------------------------------------------------------------------|
B|--8---8-----8---8---8---8----8-----10---10----10----11----11----11-----15----10-|
G|--8---8-----8---8---8---8----8-----10---10----10----12----12----12-----15----10-|
D|----8---------------------------------------------------------------------------|
A|--6---------------6---6----6----------8-------------10--------------13-----8----|
E|--------------------------------------------------------------------------------|

e|-------------------------------------------|
B|--8---8---8----10----10---10----11------10-|
G|--8---8---8----10----10---10----12------10-|
D|----8-------------10-----------------------|
A|--6------------8----------------10------8--|
E|-------------------------------------------|

[Pre-Chorus]
e|-------------------------------------------------|
B|-----8----8------10----10-----6----6------8----8-|
G|----8----8------10----10-----7----7------8----8--|
D|-------------------------------------------------|
A|--6----6------8-----8------5----5------6----6----|
E|-------------------------------------------------|

                                      x   x   x   x   x   x          x   x
e|------------------------------------------------------------5--------------6-|
B|-----8-----8-------10----10---6-----------------------------6--------------8-|
G|----8------8------10-----10---7-----7---7---7---7---7---7---7------8---8---8-|
D|------------------------------------7---7---7---7---7---7---7------8---8---8-|
A|--6------6------8------8------5-----5---5---5---5---5---5---5------6---6---6-|
E|-----------------------------------------------------------------------------|

[Chorus]
e|-----------------------------------------------------------------------------------------------------|
B|-----8----8----8----8-----10----10----10----10-----11-----11----11-----11------15-----15----10----10-|
G|----8----8----8----8-----10----10----10----10-----12-----12----12-----12-----15------15----10----10--|
D|-----------------------------------------------------------------------------------------------------|
A|--6----6----6----6-----8-----8-----8-----8-----10-----10----10-----10-----13------13-----8-----8-----|
E|-----------------------------------------------------------------------------------------------------|

[Bridge]
e|-----------------------------------------|
B|--4-----6-----6-----10-------8-------8---|
G|--3-----5-----7-----10--14—--8---8---8---|
D|--1-----3-----7-----10--12-----8-------8-| X4
A|--1-----3-----5-----8--------6----6------|
E|-----------------------------------------|

[Solo]

[Chorus 3]
e|--------------------------------|
B|--16-----18-----20-----15---10--|
G|--15-----17-----19-----15---10--|
D|--13-----15-----17-----15---10--|
A|--------------------------------|
E|--------------------------------|

e|-------------------------------------------------------------------------------------------|
B|------16----16----16----16------18----18----18----18------20----20----20----20----15---18--|
G|----15----15----15----15------17----17----17----17------19----19----19----19------15---17--|
D|--13----13----13----13------15----15----15----15------17----17----17----17--------15---15--|
A|-------------------------------------------------------------------------------------------|
E|-------------------------------------------------------------------------------------------|

e|-----------------------------------------------------------------------------------------------------|
B|-----8----8----8----8-----10----10----10----10-----11-----11----11-----11------15-----15----10----10-|
G|----8----8----8----8-----10----10----10----10-----12-----12----12-----12-----15------15----10----10--|
D|-----------------------------------------------------------------------------------------------------| X4
A|--6----6----6----6-----8-----8-----8-----8-----10-----10----10-----10-----13------13-----8-----8-----|
E|-----------------------------------------------------------------------------------------------------|


************************************

| x Palm mute

************************************

Thanks! Please leave a comment if you spot any mistakes :)

            
            
Suggest correction
Creating personal tab
Creating personal tab
You can edit any tab online and save it as your Personal.

You can edit, replace or remove any tab part or add personal notes – all changes will be seen only by you.

Personal tabs can be accessed anytime from any device, even offline.
Learn more »
comments
print report bad tab
2 comments total.
+2 reply
Blaxzter 10 Nov 13, 2014 11:55 AM

1st Verse.

e|------------------------------------------|
B|-----8-----------10-----11----15------6---|
G|------------------------------15----------| X4
D|----8----------10-------12------------7---|
A|--6----------8----------10----13------5---|
E|------------------------------------------|

+1 reply
agatablonska 10 Dec 23, 2015 03:22 AM

Here's the solo that he does, if anyone wants to learn that aswell:

e|-------------------------------------------------------------------------------------------|
B|------------------13--10--8--6--8--8h10--11-10-11-10-15-16---------------------------------|
G|---12--10--8--7----------------------------------------------------------------------------|
D|-------------------------------------------------------------------------------------------|
A|-------------------------------------------------------------------------------------------|
E|-------------------------------------------------------------------------------------------|

guest
You may want to rate the tab now too:
select rating
Wanna post a correction for this tab? Suggest correction