Oops, an error
Loading. Please wait.

Hold Back The River tab

version 8
version 8

Whole song

Interactive

Video

1,105 views 6 this week
no commentswrite comment
1 2 3 4 5
2 more votes to show rating
add to favorites
×
Save as Personal and add changes to this tab that will be seen only by you. Learn more ›
×
You can save this tab as Personal to edit and correct it or add notes. All changes will be seen only by you. Learn more »
launch autoscroll
font size
0
reset
how to read this tab
guitar tuner
edit
Autoscroll
slow
fast
+/-
esc
set tempo
stop
Author
Difficulty
About this tab version
My tab is different because i believe this is the way he play it but in the studio he has capo on 5 and play a F chord and a C. Was this info helpful? Yes No
-------------------------------------------------------------------------------
                            Hold Back The River - James Bay
-------------------------------------------------------------------------------
Tabbed by:jordana21
E-mail:jordycamilleri@gmail.com

Tuning:Standard Tuning

Verse/Intro
e|-----------------------------------------------------------------------------|
B|--6-----7---8------13---15-----13----8------13----15-------13------8---------|
G|-----------------------------------------------------------------------------|
D|-----------------------------------------------------------------------------|
A|--5-----8---10-----12---13-----12----10-----12----13-------12------10--------|
E|-----------------------------------------------------------------------------|

e|--------------8--------------------------------------------------------------|
B|--8---6\5--------------------------------------------------------------------|
G|-----------------------------------------------------------------------------|
D|-----------------------------------------------------------------------------|
A|--7----7---------------------------------------------------------------------|
E|-----------------------------------------------------------------------------|

chorus:

Bbm
Hold back the river let me look in your eyes

Bbm
Hold back the river so I---

F
Stop for a minute let me see what you hide

F                    c
hold back the river, hold back


Verse/intro


Bridge:

F             F
Lonely water, Lonely water

Bbm
wont you let us wander

Bbm
let us hold each other


F             F
Lonely water, Lonely water

Bbm
wont you let us wander

C
let us hold each other


************************************

| /   slide up
| \   slide down
| h   hammer-on
| p   pull-off
| ~   vibrato
| +   harmonic
| x   Mute note
| b   Bend
| pb  Pre-bend
| br  Bend release
| pbr Pre-bend release
| brb Bend release bend

************************************

            
            
Suggest correction
Creating personal tab
Creating personal tab
You can edit any tab online and save it as your Personal.

You can edit, replace or remove any tab part or add personal notes – all changes will be seen only by you.

Personal tabs can be accessed anytime from any device, even offline.
Learn more »
Give kudos to tab author, rate the tab!
1 2 3 4 5
comments
print report bad tab
guest
You may want to rate the tab now too:
select rating
Wanna post a correction for this tab? Suggest correction