Oops, an error
Loading. Please wait.
We have an official Let It Go tab made by UG professional guitarists. Check out the tab »
×

Let It Go intro tab

version 4
version 4

Intro

  • Added harmonized notes that can be heard in the original song.
  • This version is a fingerstyle combination of the 1st and 2nd guitar.

Whole song

Interactive

2,149 views 30 this week
2 commentsread comments
1 2 3 4 5
x 3
add to favorites
×
Save as Personal and add changes to this tab that will be seen only by you. Learn more ›
×
You can save this tab as Personal to edit and correct it or add notes. All changes will be seen only by you. Learn more »
launch autoscroll
font size
0
reset
how to read this tab
guitar tuner
edit
Autoscroll
slow
fast
+/-
esc
set tempo
stop
Fingerstyle tab that incorporates both guitar parts for the intro. 

d|--------11---11-----------------------10----11--11--------------------------------------------|
A|--8h9------9----9---13----13----13-------------------8---11---11---11----9--8-----------------|
F|-----------------------13----13----13----13---------0-------0----0----0-----------------------|
C|----------------------------------------------------------------------------------------------|
G|--6-----------------11------------------------------------------------------------------------|
D|-------------------------------------------------8-------6------------------------------------|

d|--------11---11-----------------------10----11--11--------------------------------------------|
A|--8h9------9----9---13----13----13---------------------8---11---11---11---11---6h8------------|
F|-----------------------13----13----13----13----------0--------0----0----0----0----------------|
C|----------------------------------------------------------------------------------------------|
G|--6-----------------11------------------------------------------------------------------------|
D|-------------------------------------------------8----------6---------------------------------|

ALTERNATIVELY, for something easier on the fingers for the last part,

d|--------11---11-----------------------10----11--11-------|--6---6---6-----4--3---|-------------|
A|--8h9------9----9---13----13----13---------------------8-|-----------------------|-------------|
F|-----------------------13----13----13----13----------0---|----0---0---0----------|-------------|
C|---------------------------------------------------------|-----------------------|-------------|
G|--6-----------------11-----------------------------------|-----------------------|-------------|
D|-------------------------------------------------8-------|--6--------------------|-------------|

d|--------11---11-----------------------10----11--11-------|--6---6---6---6--------|-------------|
A|--8h9------9----9---13----13----13---------------------8-|-------------------6h8-|-------------|
F|-----------------------13----13----13----13----------0---|----0---0---0---0------|-------------|
C|---------------------------------------------------------|-----------------------|-------------|
G|--6-----------------11-----------------------------------|-----------------------|-------------|
D|-------------------------------------------------8-------|--6--------------------|-------------|


******************
|h   Hammer-on
******************
Suggest correction
Creating personal tab
Creating personal tab
You can edit any tab online and save it as your Personal.

You can edit, replace or remove any tab part or add personal notes – all changes will be seen only by you.

Personal tabs can be accessed anytime from any device, even offline.
Learn more »
Give kudos to tab author, rate the tab!
1 2 3 4 5
comments
print report bad tab
2 comments total.
+1 reply
framazzi 235 Apr 02, 2017 06:19 AM

what i was looking for, both guitar in one. And sounds great. Awesome. Thanks

guest
You may want to rate the tab now too:
select rating
Wanna post a correction for this tab? Suggest correction