Oops, an error
Loading. Please wait.
We have an official Let It Go tab made by UG professional guitarists. Check out the tab »
×

Let It Go tab

version 4
version 4

Whole song

Interactive

Video

  • A breakdown of all sections with TAB and an explan... Show more
25,749 views 75 this week
no commentswrite comment
1 2 3 4 5
x 9
add to favorites
×
Save as Personal and add changes to this tab that will be seen only by you. Learn more ›
×
You can save this tab as Personal to edit and correct it or add notes. All changes will be seen only by you. Learn more »
launch autoscroll
font size
0
reset
how to read this tab
guitar tuner
edit
Autoscroll
slow
fast
+/-
esc
set tempo
stop
-------------------------------------------------------------------------------
                             Let It go - James Bay
-------------------------------------------------------------------------------
Tabbed by: Trond Marius Sørensen
E-mail: Trond_Marius_96@hotmail.com

Tuning: It's tuned a half-step down, but the F# string should be tuned a whole step down to F.

D#
A#
F
C#
G#
D#

[Intro]
                        
D#|------------------------------------------------------------|
A#|-----7-----7-----7----/12------12-----12-----12-----12------|
F|--------0-----0-----0-------0------0------0------0------0---|
C#|------------------------------------------------------------|
G#|-----5----------------/10-----------------------------------|
D#|------------------------------------------------------------|
      
|------------------------5------5------5---------------------|
|-----7-----7-----7---------------------------8-------7------|
|--------0-----0-----0-------0------0------0------0------0---|
|------------------------------------------------------------|
|------------------------------------------------------------|
|-----7------------------5-----------------------------------|

|------------------------------------------------------------|
|-----7-----7-----7----/12------12-----12-----12-----12------|
|--------0-----0-----0-------0------0------0------0------0---|
|------------------------------------------------------------|
|-----5----------------/10-----------------------------------|
|------------------------------------------------------------|


|------------------------0------0-------0-----0-------0------|
|-----7-----7-----7------------------------------------------|
|--------0-----0-----0-------0------0------0------0------0---|
|------------------------------------------------------------|
|------------------------------------------------------------|
|-----7------------------5-----------------------------------|


[Verse]

|------------------------------------------------------------|
|-----7-----7-----7----/12------12-----12-----12-----12------|
|--------0-----0-----0-------0------0------0------0------0---|
|------------------------------------------------------------|
|-----5----------------/10-----------------------------------|
|------------------------------------------------------------|
      
|------------------------5------5------5---------------------|
|-----7-----7-----7---------------------------8-------7------|
|--------0-----0-----0-------0------0------0------0------0---|
|------------------------------------------------------------|
|------------------------------------------------------------|
|-----7------------------5-----------------------------------|

|------------------------------------------------------------|
|-----7-----7-----7----/12------12-----12-----12-----12------|
|--------0-----0-----0-------0------0------0------0------0---|
|------------------------------------------------------------|
|-----5----------------/10-----------------------------------|
|------------------------------------------------------------|


|------------------------5------5------5---------------------|
|-----7-----7-----7---------------------------8-------7------|
|--------0-----0-----0-------0------0------0------0------0---|
|------------------------------------------------------------|
|------------------------------------------------------------|
|-----7------------------5-----------------------------------|

|------------------------------------------------------------|
|-----7-----7-----7----/12------12-----12-----12-----12------|
|--------0-----0-----0-------0------0------0------0------0---|
|------------------------------------------------------------|
|-----5----------------/10-----------------------------------|
|------------------------------------------------------------|

|------------------------5------5------5---------------------|
|-----7-----7-----7---------------------------8-------7------|
|--------0-----0-----0-------0------0------0------0------0---|
|------------------------------------------------------------|
|------------------------------------------------------------|
|-----7------------------5-----------------------------------|

|------------------------------------------------------------|
|-----7-----7-----7----/12------12-----12-----12-----12------|
|--------0-----0-----0-------0------0------0------0------0---|
|------------------------------------------------------------|
|-----5----------------/10-----------------------------------|
|------------------------------------------------------------|

|------------------------0------0-------0-----0-------0------|
|-----7-----7-----7------------------------------------------|
|--------0-----0-----0-------0------0------0------0------0---|
|------------------------------------------------------------|
|------------------------------------------------------------|
|-----7------------------5-----------------------------------|


[Pre-Chorus]

|------------------------------------------------------------|
|-----7-----7-----7------7-------7------7------7------7------|
|--------8-----8-----8-------8------8------8------8------8---|
|-----9------------------7-----------------------------------|
|------------------------------------------------------------|
|------------------------------------------------------------|

|------------------------------------------------------------|
|-----7-----7-----7------7-------7------7------7------7------|
|--------8-----8-----8-------8------8------8------8------8---|
|-----6------------------5-----------------------------------|
|------------------------------------------------------------|
|------------------------------------------------------------|

|------------------------------------------------------------|
|-----7-----7-----7------7-------7------7------7------7------|
|--------8-----8-----8-------8------8------8------8------8---|
|-----9------------------7-----------------------------------|
|------------------------------------------------------------|
|------------------------------------------------------------|

|------------------------------------------------------------|
|-----7-----7-----7------7~~---------------------------------|
|--------8-----8-----8---------------------------------------|
|-----6------------------------------------------------------|
|------------------------------------------------------------|
|------------------------------------------------------------|


[Chorus]

|------------------------------------------------------------|
|----12----12-----12----\7------7------7------7------7-------|
|--------0-----0-----0------0------0------0------0------0----|
|------------------------------------------------------------|
|----10-----------------\5-----------------------------------|
|------------------------------------------------------------|

|------------------------------------------------------------|
|-----3-----3------3----\2------2------2------2------2-------|
|--------0-----0-----0------0------0------0------0------0----|
|------------------------------------------------------------|
|-----2-----------------\0-----------------------------------|
|------------------------------------------------------------|

|------------------------------------------------------------|
|-----8-----8-----8-----\7------7------7------7------7-------|
|--------0-----0-----0------0------0------0------0------0----|
|------------------------------------------------------------|
|-----7-----------------\5-----------------------------------|
|------------------------------------------------------------|

|------------------------------------------------------------|
|-----2-----2-----2------2------2------2------2------2/------|
|--------0-----0-----0------0------0------0------0-----------|
|------------------------------------------------------------|
|-----0------------------------------------------------------|
|------------------------------------------------------------|

|------------------------------------------------------------|
|----12----12-----12----\7------7------7------7------7-------|
|--------0-----0-----0------0------0------0------0------0----|
|------------------------------------------------------------|
|----10-----------------\5-----------------------------------|
|------------------------------------------------------------|

|------------------------------------------------------------|
|-----3-----3------3----\2------2------2------2------2-------|
|--------0-----0-----0------0------0------0------0------0----|
|------------------------------------------------------------|
|-----2-----------------\0-----------------------------------|
|------------------------------------------------------------|

|------------------------------------------------------------|
|-----8-----8-----8-----\7------7------7------7------7-------|
|--------0-----0-----0------0------0------0------0------0----|
|------------------------------------------------------------|
|-----7-----------------\5-----------------------------------|
|------------------------------------------------------------|

|------------------------------------------------------------|
|-----2-----2-----2------2------2----------------------------|
|--------0-----0-----0------0---0----------------------------|
|------------------------------------------------------------|
|-----0------------------------------------------------------|
|------------------------------------------------------------|


[Pre-verse]

|------------------------------------------------------------|
|-----7-----7-----7----/12------12-----12-----12-----12------|
|--------0-----0-----0-------0------0------0------0------0---|
|------------------------------------------------------------|
|-----5----------------/10-----------------------------------|
|------------------------------------------------------------|
      
|------------------------5------5------5---------------------|
|-----7-----7-----7---------------------------8-------7------|
|--------0-----0-----0-------0------0------0------0------0---|
|------------------------------------------------------------|
|------------------------------------------------------------|
|-----7------------------5-----------------------------------|

|------------------------------------------------------------|
|-----7-----7-----7----/12------12-----12-----12-----12------|
|--------0-----0-----0-------0------0------0------0------0---|
|------------------------------------------------------------|
|-----5----------------/10-----------------------------------|
|------------------------------------------------------------|


|------------------------0------0-------0-----0-------0------|
|-----7-----7-----7------------------------------------------|
|--------0-----0-----0-------0------0------0------0------0---|
|------------------------------------------------------------|
|------------------------------------------------------------|
|-----7------------------5-----------------------------------|


[Verse]

|------------------------------------------------------------|
|-----7-----7-----7----/12------12-----12-----12-----12------|
|--------0-----0-----0-------0------0------0------0------0---|
|------------------------------------------------------------|
|-----5----------------/10-----------------------------------|
|------------------------------------------------------------|
      
|------------------------5------5------5---------------------|
|-----7-----7-----7---------------------------8-------7------|
|--------0-----0-----0-------0------0------0------0------0---|
|------------------------------------------------------------|
|------------------------------------------------------------|
|-----7------------------5-----------------------------------|

|------------------------------------------------------------|
|-----7-----7-----7----/12------12-----12-----12-----12------|
|--------0-----0-----0-------0------0------0------0------0---|
|------------------------------------------------------------|
|-----5----------------/10-----------------------------------|
|------------------------------------------------------------|


|------------------------0------0-------0-----0-------0------|
|-----7-----7-----7------------------------------------------|
|--------0-----0-----0-------0------0------0------0------0---|
|------------------------------------------------------------|
|------------------------------------------------------------|
|-----7------------------5-----------------------------------|

|------------------------------------------------------------|
|-----7-----7-----7----/12------12-----12-----12-----12------|
|--------0-----0-----0-------0------0------0------0------0---|
|------------------------------------------------------------|
|-----5----------------/10-----------------------------------|
|------------------------------------------------------------|

|------------------------5------5------5---------------------|
|-----7-----7-----7---------------------------8-------7------|
|--------0-----0-----0-------0------0------0------0------0---|
|------------------------------------------------------------|
|------------------------------------------------------------|
|-----7------------------5-----------------------------------|

|------------------------------------------------------------|
|-----7-----7-----7----/12------12-----12-----12-----12------|
|--------0-----0-----0-------0------0------0------0------0---|
|------------------------------------------------------------|
|-----5----------------/10-----------------------------------|
|------------------------------------------------------------|


|------------------------0------0-------0-----0-------0------|
|-----7-----7-----7------------------------------------------|
|--------0-----0-----0-------0------0------0------0------0---|
|------------------------------------------------------------|
|------------------------------------------------------------|
|-----7------------------5-----------------------------------|


[Pre-Chorus]

|------------------------------------------------------------|
|-----7-----7-----7------7-------7------7------7------7------|
|--------8-----8-----8-------8------8------8------8------8---|
|-----9------------------7-----------------------------------|
|------------------------------------------------------------|
|------------------------------------------------------------|

|------------------------------------------------------------|
|-----7-----7-----7------7-------7------7------7------7------|
|--------8-----8-----8-------8------8------8------8------8---|
|-----6------------------5-----------------------------------|
|------------------------------------------------------------|
|------------------------------------------------------------|

|------------------------------------------------------------|
|-----7-----7-----7------7-------7------7------7------7------|
|--------8-----8-----8-------8------8------8------8------8---|
|-----9------------------7-----------------------------------|
|------------------------------------------------------------|
|------------------------------------------------------------|

|------------------------------------------------------------|
|-----7-----7-----7------7~~---------------------------------|
|--------8-----8-----8---------------------------------------|
|-----6------------------------------------------------------|
|------------------------------------------------------------|
|------------------------------------------------------------|


[Chorus]

|------------------------------------------------------------|
|----12----12-----12----\7------7------7------7------7-------|
|--------0-----0-----0------0------0------0------0------0----|
|------------------------------------------------------------|
|----10-----------------\5-----------------------------------|
|------------------------------------------------------------|

|------------------------------------------------------------|
|-----3-----3------3----\2------2------2------2------2-------|
|--------0-----0-----0------0------0------0------0------0----|
|------------------------------------------------------------|
|-----2-----------------\0-----------------------------------|
|------------------------------------------------------------|

|------------------------------------------------------------|
|-----8-----8-----8-----\7------7------7------7------7-------|
|--------0-----0-----0------0------0------0------0------0----|
|------------------------------------------------------------|
|-----7-----------------\5-----------------------------------|
|------------------------------------------------------------|

|------------------------------------------------------------|
|-----2-----2-----2------2------2------2------2------2/------|
|--------0-----0-----0------0------0------0------0-----------|
|------------------------------------------------------------|
|-----0------------------------------------------------------|
|------------------------------------------------------------|

|------------------------------------------------------------|
|----12----12-----12----\7------7------7------7------7-------|
|--------0-----0-----0------0------0------0------0------0----|
|------------------------------------------------------------|
|----10-----------------\5-----------------------------------|
|------------------------------------------------------------|

|------------------------------------------------------------|
|-----3-----3------3----\2------2------2------2------2-------|
|--------0-----0-----0------0------0------0------0------0----|
|------------------------------------------------------------|
|-----2-----------------\0-----------------------------------|
|------------------------------------------------------------|

|------------------------------------------------------------|
|-----8-----8-----8-----\7------7------7------7------7-------|
|--------0-----0-----0------0------0------0------0------0----|
|------------------------------------------------------------|
|-----7-----------------\5-----------------------------------|
|------------------------------------------------------------|

|------------------------------------------------------------|
|-----2-----2-----2------2------2----------------------------|
|--------0-----0-----0------0---0----------------------------|
|------------------------------------------------------------|
|-----0------------------------------------------------------|
|------------------------------------------------------------|


[Bridge]

|------------------------------------------------------------|
|-----7-----7-----7----/12------12-----12-----12-----12------|
|--------0-----0-----0-------0------0------0------0------0---|
|------------------------------------------------------------|
|-----5----------------/10-----------------------------------|
|------------------------------------------------------------|
      
|------------------------5------5------5---------------------|
|-----7-----7-----7---------------------------8-------7------|
|--------0-----0-----0-------0------0------0------0------0---|
|------------------------------------------------------------|
|------------------------------------------------------------|
|-----7------------------5-----------------------------------|

|------------------------------------------------------------|
|-----7-----7-----7----/12------12-----12-----12-----12------|
|--------0-----0-----0-------0------0------0------0------0---|
|------------------------------------------------------------|
|-----5----------------/10-----------------------------------|
|------------------------------------------------------------|


|------------------------0------0-------0-----0-------0------|
|-----7-----7-----7------------------------------------------|
|--------0-----0-----0-------0------0------0------0------0---|
|------------------------------------------------------------|
|------------------------------------------------------------|
|-----7------------------5-----------------------------------|

|------------------------------------------------------------|
|-----8------8------8------8------8------8------8------8-----|
|--------0------0------0------0------0------0------0------0--|
|------------------------------------------------------------|
|-----7--------------------7---------------------------------|
|------------------------------------------------------------|

|------------------------------------------------------------|
|-----7------7------7------7------7------7------7------7-----|
|--------0------0------0------0------0------0------0------0--|
|------------------------------------------------------------|
|-----5--------------------5---------------------------------|
|------------------------------------------------------------|

|------------------------------------------------------------|
|----14-----14-----14-----14-----14-----14-----14-----14-----|
|--------0------0------0------0------0------0------0------0--|
|------------------------------------------------------------|
|----12-------------------12---------------------------------|
|------------------------------------------------------------|

|------------------------------------------------------------|
|----15-----15-----15-----15-----15-----15-----15-----15-----|
|--------0------0------0------0------0------0------0------0--|
|------------------------------------------------------------|
|----14-------------------15---------------------------------|
|------------------------------------------------------------|

|------------------------------------------------------------|
|-----8------8------8------8------8------8------8------8-----|
|--------0------0------0------0------0------0------0------0--|
|------------------------------------------------------------|
|-----7--------------------7---------------------------------|
|------------------------------------------------------------|

|------------------------------------------------------------|
|-----7------7------7------7------7------7------7------7-----|
|--------0------0------0------0------0------0------0------0--|
|------------------------------------------------------------|
|-----5--------------------5---------------------------------|
|------------------------------------------------------------|

|------------------------------------------------------------|
|----14-----14-----14-----14-----14-----14-----14-----14-----|
|--------0------0------0------0------0------0------0------0--|
|------------------------------------------------------------|
|----12-------------------12---------------------------------|
|------------------------------------------------------------|

|------------------------------------------------------------|
|----15-----15-----15-----15-----15~~------------------------|
|--------0------0------0------0------------------------------|
|------------------------------------------------------------|
|----14-------------------15---------------------------------|
|------------------------------------------------------------|


[Last Chorus]

|------------------------------------------------------------|
|----12-----------------\7-----------------------------------|
|------------------------------------------------------------|
|------------------------------------------------------------|
|----10-----------------\5-----------------------------------|
|------------------------------------------------------------|

|------------------------------------------------------------|
|-----3-----------------\2-----------------------------------|
|------------------------------------------------------------|
|------------------------------------------------------------|
|-----2-----------------\0-----------------------------------|
|------------------------------------------------------------|

|------------------------------------------------------------|
|-----8-----8-----------\7-----------------------------------|
|--------0-------0-------------------------------------------|
|------------------------------------------------------------|
|-----7-----------------\5-----------------------------------|
|------------------------------------------------------------|


|------------------------------------------------------------|
|-----2-----2-----2------2------2------2------2------2/------|
|--------0-----0-----0------0------0------0------0-----------|
|------------------------------------------------------------|
|-----0------------------------------------------------------|
|------------------------------------------------------------|


|------------------------------------------------------------|
|----12----12-----12----\7------7------7------7------7-------|
|--------0-----0-----0------0------0------0------0------0----|
|------------------------------------------------------------|
|----10-----------------\5-----------------------------------|
|------------------------------------------------------------|

|------------------------------------------------------------|
|-----3-----3------3----\2------2------2------2------2-------|
|--------0-----0-----0------0------0------0------0------0----|
|------------------------------------------------------------|
|-----2-----------------\0-----------------------------------|
|------------------------------------------------------------|

|------------------------------------------------------------|
|-----8-----8-----8-----\7------7------7------7------7-------|
|--------0-----0-----0------0------0------0------0------0----|
|------------------------------------------------------------|
|-----7-----------------\5-----------------------------------|
|------------------------------------------------------------|

|------------------------------------------------------------|
|-----2-----2-----2------2------2------2------2------2/------|
|--------0-----0-----0------0------0------0------0-----------|
|------------------------------------------------------------|
|-----0------------------------------------------------------|
|------------------------------------------------------------|

|------------------------------------------------------------|
|----12----12-----12----\7------7------7------7------7-------|
|--------0-----0-----0------0------0------0------0------0----|
|------------------------------------------------------------|
|----10-----------------\5-----------------------------------|
|------------------------------------------------------------|

|------------------------------------------------------------|
|-----3-----3------3----\2------2------2------2------2-------|
|--------0-----0-----0------0------0------0------0------0----|
|------------------------------------------------------------|
|-----2-----------------\0-----------------------------------|
|------------------------------------------------------------|

|------------------------------------------------------------|
|-----8-----8-----8-----\7------7------7------7------7-------|
|--------0-----0-----0------0------0------0------0------0----|
|------------------------------------------------------------|
|-----7-----------------\5-----------------------------------|
|------------------------------------------------------------|

|------------------------------------------------------------|
|-----2-----2-----2------2------2------2---------------------|
|--------0-----0-----0------0------0-------------------------|
|------------------------------------------------------------|
|-----0------------------------------------------------------|
|------------------------------------------------------------|


[Ending]

|------------------------------------------------------------|
|-----7-----7-----7----/12------12-----12-----12-----12------|
|--------0-----0-----0-------0------0------0------0------0---|
|------------------------------------------------------------|
|-----5----------------/10-----------------------------------|
|------------------------------------------------------------|
      
|------------------------5------5------5---------------------|
|-----7-----7-----7---------------------------8-------7------|
|--------0-----0-----0-------0------0------0------0------0---|
|------------------------------------------------------------|
|------------------------------------------------------------|
|-----7------------------5-----------------------------------|

|------------------------------------------------------------|
|-----7-----7-----7----/12------12-----12-----12-----12------|
|--------0-----0-----0-------0------0------0------0------0---|
|------------------------------------------------------------|
|-----5----------------/10-----------------------------------|
|------------------------------------------------------------|


|------------------------0------0-------0-----0-------0------------------|
|-----7-----7-----7-------------------------------------------------7~~~~|
|--------0-----0-----0-------0------0------0------0------0-------0-------|
|------------------------------------------------------------------------|
|-------------------------------------------------------------5----------|
|-----7------------------5-----------------------------------------------|



************************************

| /  Slide up
| \  Slide down
| ~  Vibrato

************************************
Suggest correction
Creating personal tab
Creating personal tab
You can edit any tab online and save it as your Personal.

You can edit, replace or remove any tab part or add personal notes – all changes will be seen only by you.

Personal tabs can be accessed anytime from any device, even offline.
Learn more »
comments
print report bad tab
guest
You may want to rate the tab now too:
select rating
Wanna post a correction for this tab? Suggest correction