Oops, an error
Loading. Please wait.
We have an official Let It Go tab made by UG professional guitarists. Check out the tab »
×

Let It Go chords

version 7
version 7

Whole song

Interactive

Video

  • A breakdown of all sections with TAB and an explan... Show more
19,555 views 264 this week
1 commentread comment
1 2 3 4 5
x 33
add to favorites
×
Save as Personal and add changes to this tab that will be seen only by you. Learn more ›
×
You can save this tab as Personal to edit and correct it or add notes. All changes will be seen only by you. Learn more »
launch autoscroll
font size
0
reset
transpose
0
reset
simplify chords
display chords
guitar tuner
edit
Autoscroll
slow
fast
+/-
esc
set tempo
stop
Strumming
There is no strumming pattern for this song yet. and get +5 IQ
CAPO ON 6TH FRET

CHORDS:
G - 320003
C - 032003
Em7 - 022033
D - 200200
Am - 002210


[INTRO]

e|------3--3---------2--3--3-------------------------3--3-------2--3--3------------|
B|-0h1---------3s5------------0-3--3--1--0-----0h1---------3s5-----------0-3-------|
G|---------------------------------------------------------------------------------|
D|---------------------------------------------------------------------------------|
A|---------------------------------------------------------------------------------|
E|---------------------------------------------------------------------------------|

Or (easier)

G      C      Em7      D 
G      C      Em7      D 


[VERSE]

G                    C               Em7              D
From walking home and talking loads 
G                  C                       Em7        D
To seeing shows in evening clothes with you
G                  C                 Em7              D
From nervous touch and getting drunk
G                C                  Em7               D
To staying up and waking up with you


[PRE-CHORUS]

              Em7
And now we're sleeping near the edge
D                           C
Holding something we don't need
            Em7             
Oh, this delusion in our heads
D                          C
Is gonna bring us to our knees


[CHORUS]

                  C         G
So come on let it gooooooo
            Em7         D
Just let it beeeeeeee
                 C        G
Why don't you be youuuuuu
              D
And I'll be me

                    C         G
Everything's that's brooooke
                Em7        D
Leave it to the breeeeeeeze
                 C        G
Why don't you be youuuuuuu
             D
And I'll be me
             
And I'll be me


[INSTRUMENTAL]

e|------3--3---------2--3--3-------------------------3--3-------2--3--3------------|
B|-0h1---------3s5------------1s3--3--1--0-----0h1---------3s5-----------1s3-------|
G|---------------------------------------------------------------------------------|
D|---------------------------------------------------------------------------------|
A|---------------------------------------------------------------------------------|
E|---------------------------------------------------------------------------------|

Or (easier)

G      C      Em7      D 
G      C      Em7      D 


[VERSE]

G                      C               Em7               D
From throwing clothes across the floor
G                      C                  Em7            D
To teeth and clothes and slamming doors at you
G                 C              Em7                     D
If this is all we're living for
G                            C              Em7          D
Why are we doing it, doing it, doing it anymore


[PRE-CHORUS]

            Em7
I used to recognize myself
D                           C
It's funny how reflections change
            Em7
And we're becoming something else
D                           c
I think it's time to walk away


[CHORUS]

                  C         G
So come on let it gooooooo
            Em7         D
Just let it beeeeeeee
                  C        G
Why don't you be youuuuuu
              D
And I'll be me

                    C         G
Everything's that's brooooke
                Em7        D
Leave it to the breeeeeeeze
                  C        G
Why don't you be youuuuuuu
             D
And I'll be me
             
And I'll be me


[INSTRUMENTAL]

e|------3--3---------2--3--3-------------------------3--3-------2--3--3------------|
B|-0h1---------3s5------------1s3--3--1--0-----0h1---------3s5-----------1s3-------|
G|---------------------------------------------------------------------------------|
D|---------------------------------------------------------------------------------|
A|---------------------------------------------------------------------------------|
E|---------------------------------------------------------------------------------|

Or (easier)

G      C      Em7      D 
G      C      Em7      D 


[BRIDGE]

Am                                 Em7
Trying to fit your hand inside of mine
Em7
When we know it just don't belong
D
There's no force on earth
                   C
Could make me feel right, no

Whoa

Am                                 Em7
Trying to push this problem up the hill
Em7
When it's just too heavy to hold
D                              C
Think now's the time to let it slide


[CHORUS] (single strum)

                  C         G
So come on let it goooooooo
            Em7         D
Just let it beeeeeeeee
                  C        G
Why don't you be youuuuuuu
              D
And I'll be me

                    C        G
Everything's that's brooooooke
                 Em7        D
Leave it to the breeeeeeeeeeze
               C           G
Let the ashes faaaaaaalllll
              D
Forget about me

                  C         G
So come on let it goooooooo
            Em7         D
Just let it beeeeeeee
                  C        G
Why don't you be youuuuuuu
              D
And I'll be me
             G
And I'll be me


[OUTRO]

e|------3--3---------2--3--3-------------------------3--3-------2--3--3------------|
B|-0h1---------3s5------------1s3--3--1--0-----0h1---------3s5-----------1s3-------|
G|---------------------------------------------------------------------------------|
D|---------------------------------------------------------------------------------|
A|---------------------------------------------------------------------------------|
E|---------------------------------------------------------------------------------|

Or (easier)


G      C      Em7      D 
G      C      Em7      D 


END ON ( G )


************************************

| h  Hammer-on
| s  Slide

************************************

            
            
Suggest correction
Creating personal tab
Creating personal tab
You can edit any tab online and save it as your Personal.

You can edit, replace or remove any tab part or add personal notes – all changes will be seen only by you.

Personal tabs can be accessed anytime from any device, even offline.
Learn more »
comments
print report bad tab
1 comment total.
0 reply
jdhigdon2 10 Oct 09, 2016 01:49 PM

"teeth and claws"

not clothes on the second line of the verse.

guest
You may want to rate the tab now too:
select rating
Wanna post a correction for this tab? Suggest correction