Oops, an error
Loading. Please wait.

Let It Go Chords

version 8
version 8

Whole song

  • I loved one of the chords HarryMajin made for this... Show more
  • More difficult chords are tabbed at top of page.
  • Chord sheet with tablature guide embedded.

Interactive

Video

  • A breakdown of all sections with TAB and an explan... Show more
211 views 18 this week
no commentswrite comment
1 2 3 4 5
3 more votes to show rating
add to favorites
launch autoscroll
font size
0
reset
transpose
0
reset
simplify chords
display chords
guitar tuner
Autoscroll
slow
fast
+/-
esc
set tempo
stop
Help us to improve Ultimate-Guitar.com Take our survey!
×
Author
Difficulty
Tuning
intermediate
D G C F A D
About this tab version
Chord sheet with tablature guide embedded. Was this info helpful? Yes No
James Bay - Let It Go
Tuning: D standard (D G C F A d)

Intro  
   Db        Gbmaj7                |Bbm         Ab                  |
d|---------------------------------|------------6---6---6-----------|
A|-8---8---8--/13--13--13--13--13--|8---8---8---------------9---8---|
F|---0---0---0---0---0---0---0---0-|--0---0---0---0---0---0---0---0-|
C|---------------------------------|--------------------------------|
G|-6----------/11------------------|--------------------------------|
C|---------------------------------|8-----------6-----------6---6---|

GtrII
d|-----11--11--------------10--11--|11\---------8-------------------|
A|-8h9-------9p8-------------------|------8-----------------11------|


   Db        Gbmaj7                |Bbm         Ab*                 ||
  ---------------------------------|--------------------------------|
  -8---8---8--/13--13--13--13--13--|8---8---8---6---6---6---6---6---|
  ---0---0---0---0---0---0---0---0-|--0---0---0---0---0---0---0---0-|
  ---------------------------------|--------------------------------|
  -6----------/11------------------|--------------------------------|
  ---------------------------------|8-----------6--------(6)--------|

GtrII
  -----11--11--------------10--11--|11\-----------------------------|
  -8h9-------9p8-------------------|------8-----11------------------|


Verse 1
Db               Gbmaj7                Bbm      Ab
 From walking home    and talking loads 
Db             Gbmaj7                          Bbm      Ab
 To seeing shows     in evening clothes with you
Db                Gbmaj7                Bbm      Ab
 From nervous touch     and getting drunk
Db            Gbmaj7                     Bbm      Ab*
 To staying up     and waking up with you


Pre Chorus
             Bbm          Db                  |G7b5       Gbmaj7               |
             ---------------------------------|--------------------------------|
             -8---8---8---8---8---8---8---8---|8---8---8---8---8---8---8---8---|
             ---8---8---8---8---8---8---8-----|--8---8-------8---8---8---8-----|
             -10----------8-------------------|7-----------6-------------------|
             ---------------------------------|--------------------------------|
             ---------------------------------|--------------------------------|
Now we're sleepin' near the edge holding something we don't need

           Bbm          Db                  |G7b5 
           ---------------------------------|--------------------------------|
           -8---8---8---8---8---8---8---8---|8---8---8---8~------------------|
           ---8---8-------8---8---8---8-----|--8---8---8---------------------|
           -10----------8-------------------|7-------------------------------|
           ---------------------------------|--------------------------------|
           ---------------------------------|--------------------------------|
Oh, this delusion in our heads is gonna bring us to our knees

Chorus
              Gbmaj7      Db                  |Bbm         Ab6                 |
             ---------------------------------|--------------------------------|
             -13--13--13-\8---8---8---8---8---|4---4---4---3---3---3---3---3---|
             ---0---0---0---0---0---0---0---0-|--0---0---0---0---0---0---0---0-|
             ---------------------------------|--------------------------------|
             -11---------\6-------------------|3-----------1-------------------|
             ---------------------------------|--------------------------------|
So come on let it go;               just let it be
                
                 Ebm(2)      Db                  |Ab6                         |
                ---------------------------------|----------------------------|
                /9---9---9--\8---8---8---8---8---|3---3---3---3---3---3---3---|
                ---0---0---0---0---0---0---0---0-|--0---0---0---0---0---0-----|
                ---------------------------------|----------------------------|
                /8----------\6-------------------|1-----------1-------1---1/--|
                ---------------------------------|----------------------------|
Why don't you be you                   and I'll be me

                      Gbmaj7  Db                 Bbm    Ab6
 Everything's that's broke,     leave it to the breeze
                   Ebm(2) Db            Ab6
 Why don't you be you       and I'll be me, and I'll be me


Interlude    Db  Gbmaj7 |Bbm  Ab6   |Db  Gbmaj7 |Bbm  Ab*  ||


Verse 2
Db                   Gbmaj7               Bbm      Ab
 From throwing clothes     across the floor
Db                Gbmaj7                       Bbm      Ab*
 To teeth and claws     and slamming doors at you
Db            Gbmaj7               Bbm      Ab
 If this is all     we're living for
Db                  Gbmaj7                        Bbm      Ab*
 Why are we doing it,     doing it, doing it anymore


Pre Chorus
            Bbm            Db                           G7b5     Gbmaj7
 I used to recognize myself it's funny how reflections change
             Bbm                 Db                        G7b5
 And we're becoming something else I think it's time to walk away


Chorus
                  Gbmaj7  Db          Bbm    Ab6
 So come on let it go;     just let it be
                  Ebm(2) Db           Ab6
 Why don't you be you     and I'll be me
                      Gbmaj7  Db                 Bbm    Ab6
 Everything's that's broke,     leave it to the breeze
                   Ebm(2) Db            Ab6
 Why don't you be you       and I'll be me, and I'll be me


Interlude    Db  Gbmaj7 |Bbm  Ab   |Db  Gbmaj7 |Bbm  Ab*  ||

Bridge
Ebm                              |Db                              |
---------------------------------|--------------------------------|
-9---9---9---9---9---9---9---9---|8---8---8---8---8---8---8---8/--|
---0---0---0---0---0---0---0---0-|--0---0---0---0---0---0---0-----|
---------------------------------|--------------------------------|
-8-----------8-------------------|6-----------6-------------------|
---------------------------------|--------------------------------|
 Trying to fit your hand inside of mine when we know it just don't belong

Ab6                              |Bbm          *                  |
---------------------------------|--------------------------------|
-15--15--15--15--15--15--15--15--|16--16--16--16--16--16--16--16\-|
---0---0---0---0---0---0---0---0-|--0---0---0---0---0---0---0-----|
---------------------------------|--------------------------------|
-13----------13------------------|15----------15------------------|
---------------------------------|--------------------------------|
 There's no force on earth could make me feel right, no, whoa

Ebm                                 Db
 Trying to push this problem up the hill when it's just too heavy to hold
Ab6                               Bbm* (hold)
 Think now's the time to let it slide


Chorus
                  Gbmaj7  Db          Bbm    Ab6
 So come on let it go;     just let it be
                  Ebm(2) Db           Ab6
 Why don't you be you     and I'll be me
                      Gbmaj7  Db                 Bbm    Ab6
 Everything's that's broke,     leave it to the breeze
               Gbmaj7  Db             Ab6
 Let the ashes fall,     forget about me
                   Ebm(2) Db            Ab6
 Why don't you be you       and I'll be me, and I'll be me


Outro    Db  Gbmaj7 |Bbm  Ab6  |Db  Gbmaj7 |Bbm  Ab6* ||Db
Suggest correction
Give kudos to tab author, rate the tab!
1 2 3 4 5
comments
print report bad tab
guest
You may want to rate the tab now too:
select rating
Wanna post a correction for this tab? Suggest correction