Oops, an error
Loading. Please wait.

Sparks tab

163 views 6 this week
no commentswrite comment
1 2 3 4 5
3 more votes to show rating
add to favorites
×
Save as Personal and add changes to this tab that will be seen only by you. Learn more ›
×
You can save this tab as Personal to edit and correct it or add notes. All changes will be seen only by you. Learn more »
launch autoscroll
font size
0
reset
how to read this tab
guitar tuner
edit
Autoscroll
slow
fast
+/-
esc
set tempo
stop
Capo 5
Standard tuning

[Intro]
e|----------------------|----------------------|---------------------------------0--3------|
B|-------------1---3----|-------------1---3----|---1------1--0------1--1-------1-------1s3-|
G|--2-------2-----------|--2-------2-----------|-----2-2-------2-2--------2-2--------------|
D|----2-2--------2------|----2-2--------2------|---0-----0---0-----0---0------0------------|
A|--0-----0----0--------|--0-----0----0--------|-------------------------------------------|
E|----------------------|----------------------|-------------------------------------------|

[Verse]
e|----------------------|----------------------|---------------------------------0--3------|  x2
B|-------------1---3----|-------------1---3----|---1------1--0------1--1-------1-------1s3-|
G|--2-------2-----------|--2-------2-----------|-----2-2-------2-2--------2-2--------------|
D|----2-2--------2------|----2-2--------2------|---0-----0---0-----0---0------0------------|
A|--0-----0----0--------|--0-----0----0--------|-------------------------------------------|
E|----------------------|----------------------|-------------------------------------------|

If I told you about my favourite dream
The one without you
Would you spit fire at me?

e|---------------------------------|----3-----3-----3----------0-0-0-0-|
B|--1-----1-----1-----1-----1------|------3-----3-----3-----0--0-0-0-0-|
G|---2-2----2-----2-----2-----2----|--2-----2-----2-----2---0--0-0-0-0-|
D|--3----3----3-----3-----3-----3--|------------------------0--0-0-0-0-|
A|---------------------------------|---------------------------2-2-2-2-|
E|---------------------------------|------------------------3--3-3-3-3-|

Or would you burn to know
Every single by blow

e|----------------------|----------------------|---------------------------------0--3------|  x2
B|-------------1---3----|-------------1---3----|---1------1--0------1--1-------1-------1s3-|
G|--2-------2-----------|--2-------2-----------|-----2-2-------2-2--------2-2--------------|
D|----2-2--------2------|----2-2--------2------|---0-----0---0-----0---0------0------------|
A|--0-----0----0--------|--0-----0----0--------|-------------------------------------------|
E|----------------------|----------------------|-------------------------------------------|

I don't know her
Maybe she isn't real
She didn't hold back
When you were lying next to me


e|---------------------------------|----3-----3-----3----------0-0-0-0-|
B|--1-----1-----1-----1-----1------|------3-----3-----3-----0--0-0-0-0-|
G|---2-2----2-----2-----2-----2----|--2-----2-----2-----2---0--0-0-0-0-|
D|--3----3----3-----3-----3-----3--|------------------------0--0-0-0-0-|
A|---------------------------------|---------------------------2-2-2-2-|
E|---------------------------------|------------------------3--3-3-3-3-|

This can't be all we are
Silent and in the dark

[Chorus]
Strumming
     
    Am   Am2    F     G
e|--0--|--0--|--0--|--0--|  
B|--1--|--3--|--1--|--0--|
G|--2--|--2--|--2--|--0--|
D|--2--|--2--|--3--|--0--|
A|-(0)-|-(0)-|-----|--2--|
E|-----|-----|-----|--3--|

 G                  Am
We could be making sparks
     Am2                    F
But we don't ignite, don't ignite
 G                  Am
We could be making sparks
     Am2                    F
But we need to fight, need to fight

[Bridge]
   Am3   Am4   Am2   Am
e|--0--|--0--|--0--|--0--|
B|--1--|--0--|--3--|--1--|
G|--0--|--2--|--2--|--2--|
D|--2--|--2--|--2--|--2--|
A|-----|-----|-----|-(0)-|
E|-----|-----|-----|-----|
       Am3           Am4
No I never saw the walls
          Am2        Am
Falling on us like this
       Am3           Am4
Now I'm hanging from a rope
          Am2        Am
Holding my hope, my hope

   D1    D2    D3
e|--0--|--0--|--0--|
B|--1--|--0--|--3--|
G|--2--|--2--|--2--|
D|--0--|--0--|--0--|
A|-----|-----|-----|
E|-----|-----|-----|

          D1         D2                       D3        D2
 I don't need it, I just want it more than anything else
    G     F
e|--0--|--0--|
B|--1--|--0--|
G|--2--|--0--|
D|--3--|--0--|
A|--0--|--2--|
E|--0--|--3--|
       F
I can do this alone
    G
No, no


   

************************************

| (n)  Ghost note
 

************************************

            
            
Suggest correction
Creating personal tab
Creating personal tab
You can edit any tab online and save it as your Personal.

You can edit, replace or remove any tab part or add personal notes – all changes will be seen only by you.

Personal tabs can be accessed anytime from any device, even offline.
Learn more »
Give kudos to tab author, rate the tab!
1 2 3 4 5
comments
print report bad tab
guest
You may want to rate the tab now too:
select rating
Wanna post a correction for this tab? Suggest correction