Oops, an error
Loading. Please wait.

Give Me My Month tab

103 views 1 this week
no commentswrite comment
1 2 3 4 5
3 more votes to show rating
add to favorites
×
Save as Personal and add changes to this tab that will be seen only by you. Learn more ›
×
You can save this tab as Personal to edit and correct it or add notes. All changes will be seen only by you. Learn more »
launch autoscroll
font size
0
reset
how to read this tab
guitar tuner
edit
Autoscroll
slow
fast
+/-
esc
set tempo
stop
Author
Difficulty
This is based on the piano with some minor changes to make it more guitar friendly. 

Best played finger picked rather than with a plectrum. Either technique is possible, you just might 
not have a great time with the chords if you use a plectrum. Many of the chords are spread or arpeggiated. 
Writing all the ornaments in precisely as they sound makes the tab very hard to read so I've written 
everything as block chords. 

The tune is in a very loose 4/4 timing. Learn to play it quite strictly then once you nail that you can push
and pull the timings around a little. Chord names are there so you know what you're playing but avoid 
substituting the tabbed chord for an easier version cause the song won't sound as good. 

[Intro]

    F#m/C#                                 A/C#   C#° A AM7
  E      F#m    D/B  D     A  A/C#   E F#m     F#m
e|----------------2--2-----------12--7-9-------------------------------------|
B|12--10--2-------3--3---2-----9---9-------10---7--5--2--2---2---------------|
G|9---9---2-------2--2-----2---10----------9----6--4--2--2---2---------------|
D|9---7---2-------------2--2---9-----6-7---11---7--5--2--6---2---------------|
A|11--------------2--5-----4---11---------------7--4--0--0-------------------|
E|0---9---2----------------5------------------9--------------0---------------|


[Verse]

 Give me...                                                        And let me...
  A    F#m    A  F#m   D   G   D   A           D                   D  Em F#m
e|------0h2---12--14---10--7---7---5-----------2----------------------0--2---|
B|2-----2-----10--10---7-7-10--7---5-----------3-------------------3--0--2---|
G|2-----2-----9---11---7-7-7---7---6-----------2-------------------2--0--2---|
D|2-----------11--11---0---9---------------------0-----------------0--2--4---|
A|0-----------0------0-------------------------------------------------------|
E|------2----------------------10--5-----------------------------------------|


[Chorus]

  See where...
  G    F#m    A     D Em F#m G    F#m  A   D   G F#m A  D
e|3--3--2--2--0--------------------------------------------------------------|
B|3--3--2--2--2-----3--5--7--8--8--7---5---3---8--7--5--3--------------------|
G|4--4--2--2--2-----2--4--6--7--7--6---6---2---7--6--6--2--------------------|
D|---5-----4---------------------------7---4---9--7--5--4--------------------|
A|-----------------------------------------5---10-7-----5--------------------|
E|3-----2-----0-----2--3--5--7--7--5---5-------------5-----------------------|


[Verse 2]

  Help me...                      Never...                               I never...
  A   G   D       A   G     D     A   G  D  E° 
e|12--7---0h2-----12--7-----10----12--7--2-----------------------------------|
B|10--8---3-------10--8-----7-----10--8--3--11-------------------------------|
G|9---7---2-------9---7-----7-----9---7--2--9--------------------------------|
D|11--9---0-------11--9-----7-----11--9--0--12-------------------------------|
A|------------------------------------------11-------------------------------|
E|---------------------------------------------------------------------------|


[Chorus]

  Told...
  G  F#m  A   D       D A F#m G   F#m  A      D
e|3---2---0-------------------------------------------------------------------|
B|3---2---2---3-------3-5--7--8-8--7---5---5--3-------------------------------|
G|4---2---2---2-------2-4--6--7-7--6---6---2--2-------------------------------|
D|--------2---4----------------------------2--4-------------------------------|
A|------------5----------------------------0--5-------------------------------|
E|3---2---0-----------2-3--5--7-7--5---5--------------------------------------|


[Verse 3]

  Halfway...                                              We were undone... In the
  A7 F#m  D            A  F#m  G   D   A  D  G  A  G   D5   F#    BM7    
e|12--9---10-----------12--9---10--10--5--10-10-9--7---7----------------------|
B|14--7---7----5-7-----10--7---8---7---5--7--8--10-8---7----5-----------------|
G|12--6---7------------9---6---7---7---6--7--7--9--7---10---3-----7-----------|
D|14--7---7--------7---11--7---9---7---7--7--9--11-9---10---4-----11----------|
A|----------------------------------------------------------------9-----------|
E|----------------------------------------------------------2-----7-----------|


[Chorus]

 Time...
 Em7 F#m7 Em       F#       BM7 
e|----0-----------------------------------------------------------------------|
B|5---2---5--------5----------------------------------------------------------|
G|7---2---4--------3--------7-------------------------------------------------|
D|5-------5-----------------11------------------------------------------------|
A|-----------------------1--9-------------------------------------------------|
E|7---2---0--------2---4----7-------------------------------------------------|


Give me my month as a lucky one 
Let me see where she is going 
Oh let me see where she has gone 
Let me see where she has gone 

Help me back south with my changing love 
Ever told her where the fear comes from 
I never told her where the fear comes from 
I never told her where the fear comes from 

Halfway through the night she won't have come 
Or seen where I have been in the time 
We were undone 
In the time we were undone 
In the time we were undone


************************************


| h   Hammer-on


************************************

            
            
Suggest correction
Creating personal tab
Creating personal tab
You can edit any tab online and save it as your Personal.

You can edit, replace or remove any tab part or add personal notes – all changes will be seen only by you.

Personal tabs can be accessed anytime from any device, even offline.
Learn more »
Give kudos to tab author, rate the tab!
1 2 3 4 5
comments
print report bad tab
guest
You may want to rate the tab now too:
select rating
Wanna post a correction for this tab? Suggest correction