Oops, an error
Loading. Please wait.

1973 Bass Tab

version 2
version 2

Whole song

Interactive

9,370 views 21 this week
no commentswrite comment
1 2 3 4 5
x 5
add to favorites
launch autoscroll
font size
0
reset
guitar tuner
Autoscroll
slow
fast
+/-
esc
set tempo
stop
Help us to improve Ultimate-Guitar.com Take our survey!
×
Author
Difficulty
novice
My first bass tab. Chorus may be wrong

Intro

G|--------9-9-------|--------9-9-------| 
D|---9/11-----11----|---9/11-----11----| 
A|---------------9\-|---------------9\-| 
E|-2----------------|-0----------------| 
B|------------------|------------------| 

G|--------9-9----9/11-|--------9-9-------|---| 
D|---9/11-----11------|---9/11-----11----|---| 
A|--------------------|-0-------------12-|---| 
E|--------------------|------------------|---| 
B|-3------------------|------------------| 



Verse

G|--------9-9-------|--------9-9-------| 
D|---9/11-----11----|---9/11-----11----| 
A|---------------9\-|---------------9\-| 
E|-2----------------|-0----------------| 
B|------------------|------------------| 

G|--------9-9----9/11-|--------9-9-------|----| 
D|---9/11-----11------|---9/11-----11----|----| 
A|--------------------|-0-------------12-|----| 
E|--------------------|------------------|----| 
B|-3------------------|------------------|----|

G|--------9-9-------|--------9-9-------|--------9-9----9/11-|--------9-9-------| 
D|---9/11-----11----|---9/11-----11----|---9/11-----11------|---9/11-----11----| 
A|---------------9\-|---------------9\-|--------------------|-0----------------| 
E|-2----------------|-0----------------|--------------------|------------------| 
B|------------------|------------------|-3------------------|------------------|


G|-9/10-9/10-9/10\-|----| 
D|-----------------|----| 
A|-----------------|----| 
E|-----------------|----|
B|-----------------|----|



Chorus

G|---------------|---------------|---------------| 
D|---4-----2---2-|---4-----2---2-|---2-----2---2-| 
A|-----2h4---4---|-----2h4---4---|-----2h4---4---| 
E|-2-------------|-2-------------|-0-------------| 
B|---------------|---------------|---------------|

G|---------------|---------------|--| 
D|---2-----2---2-|---0-----0---0-|--| 
A|-----2h4---4---|-----0h2---2---|--| 
E|-0-------------|---------------|--|
D|---------------|-3-------------|--| 

G|---------------|---------------|---------------|
D|---0-----0---2-|---7-----7---7-|---7-----7---7-|
A|-----0h2---2---|-5---7h9---9---|-5---7h9---9---|
E|---------------|---------------|---------------|
B|-3-------------|---------------|---------------| 




Bridge

G|-----------------|-----------------|-----------------|-----------------|--| 
D|-----------------|-----------------|-----------------|-----------------|--| 
A|-5-5-5-5-5-5-5-5-|-2-2-2-2-2-2-2-2-|-0-0-0-0-0-0-0-0-|-7-7-7-7-7-7-7-7-|--| 
E|-----------------|-----------------|-----------------|-----------------|--| 
B|-----------------|-----------------|-----------------|-----------------|--| 

G|-----------------|-----------------|-----------------|-----------------|--| 
D|-----------------|-----------------|-----------------|-----------------|--| 
A|-5-5-5-5-5-5-5-5-|-2-2-2-2-2-2-2-2-|-7-7-7-7-7-7-7-7-|-8-8-8-8-8-8-8-8-|--| 
E|-----------------|-----------------|-----------------|-----------------|--| 
B|-----------------|-----------------|-----------------|-----------------|--| 

G|--------------------| 
D|--4~--2~------------| 
A|---------5~---------| 2x
E|------------5~--5-4-| 
B|--------------------|

Verse 2

G|--------9-9-------|--------9-9-------| 
D|---9/11-----11----|---9/11-----11----| 
A|---------------9\-|---------------9\-| 
E|-2----------------|-0----------------| 
B|------------------|------------------|

G|--------9-9----9/11-|--------9-9-------|---| 
D|---9/11-----11------|---9/11-----11----|---| 
A|--------------------|-5-------------12-|---| 
D|--------------------|------------------|---| 
B|-3------------------|------------------|---|

G|--------9-9-------------|--------9-9-------------| 
D|---9/11-----11----------|---9/11-----11----------| 
A|---------------12-11-10-|---------------12-11-10-| 
E|-2----------------------|-0----------------------| 
B|------------------------|------------------------| 

G|--------9-9-------------|--------9-9------------|-| 
D|---9/11-----11----------|---9/11-----11---------|-| 
A|---------------12-11-10-|---------------8-8-8-8-|-| 
E|------------------------|-0---------------------|-| 
B|-3----------------------|-----------------------|-| 



Outro

G|---------------------------------|---------------------------------|--| 
D|---------------------------------|---------------------------------|--| 
A|-5-5-5-5-5-5-5-5-5-5-5-5-5-5-5-5-|-7-7-7-7-7-7-7-7-7-7-7-7-7-7-7-7-|--| 
E|---------------------------------|---------------------------------|--| 
B|---------------------------------|---------------------------------|--| 

G|-------------------|----| 
D|-------------------|----| 
A|-7-7-7-7-7-7-7-7-7-|----| 
E|-------------------|----|
B|-------------------|----|

Cheaterboy  
Suggest correction
comments
print report bad tab
guest
You may want to rate the tab now too:
select rating
Wanna post a correction for this tab? Suggest correction