Oops, an error
Loading. Please wait.

1973 Bass Tab

version 3
version 3

Whole song

Interactive

1,691 views 1 this week
no commentswrite comment
1 2 3 4 5
excellent!
x 4
add to favorites
launch autoscroll
font size
0
reset
guitar tuner
Autoscroll
slow
fast
+/-
esc
set tempo
stop
Help us to improve Ultimate-Guitar.com Take our survey!
×
Author
Difficulty
advanced
My version for the Album song... just the right tempo for that lovely bass... 
this is not the shorter Music Video version...
Please rate it and most of all enjoy !!

1973 - James Blunt
Tempo : 123 bpm
Tuning : EADG

Intro Piano…

Bass starts : 00:20
G|---------------------------------------------------------------|-
D|-----2/2-------------2/2-------------2/2---4--------2/2--------|- 
A|---4-----4---------4-----4---------4-----4--------4-----4------|-
E|-2---------2--0--2---------2--0--2-----------0--2---------5--4-|-

Verse 1 00:36
G|---------------------------------------------------------------|-
D|-----2/2-------------2/2-------------2/2---4--------2/2--------|- 
A|---4-----4---------4-----4---------4-----4--------4-----4------|-
E|-2---------2--0--2---------2--0--2-----------0--2---------5--4-|-
Simona 
You're getting older
Your journey's been
Etched on your skin

00:51
G|---------------------------------------------------------------|-
D|-----2/2-------------2/2-------------2/2---4-------2/2---3-333-|- 
A|---4-----4---------4-----4---------4-----4-------4-----4-------|-
E|-2---------2--0--2---------2--0--2-----------0--2--------------|-
Simona
Wish I had known that
What seemed so strong
Has been and gone

Chorus: 01:07
G|----------------------------------------------|-
D|-----2----------2----------2----------2-------|- 
A|---4--4-2-2---4--4-2-2---4--4-2-2---4--4-2----|-
E|-2----------2----------2-----------2----------|-
I would call you up every Saturday night
And we both stayed out 'til the morning light
G|----------------------------------------------|-
D|---------------------7---------7--------------|- 
A|-5---------5----------7-9-7-9---7-9-7---------|-
E|---7-5-7-5---7-5-7--------------------2-------|-
And we sang, "Here we go again"
G|----------------------------------------------|-
D|-----2----------2----------2----------2-------|- 
A|---4--4-2-2---4--4-2-2---4--4-2-2---4--4-2-2--|-
E|-2----------2----------2-----------2----------|-
 And though time goes by
I will always be 
In a club with you in 1973
G|----------------------------------------------|-
D|---------------------7---------7--------------|- 
A|-5---------5----------7-9-7-9---7-9-7---------|-
E|---7-5-7-5---7-5-7--------------------2-------|-
Singing "Here we go again"

Verse 2 01:38
G|----------------------------------------------------------|-
D|-----2/2-------------2/2-------------2/2-------2/2--------|- 
A|---4-----4---------4-----4---------4-----4---4-----4------|-
E|-2---------2--0--2---------2--0--2---------2---------5--4-|-
Simona
Wish I was sober
So I could see clearly now
The rain has gone

01:53
G|----------------------------------------------------------------|-
D|----2/2-------------2/2-------------2/2----------2/2—3--3-3-3-3-|- 
A|--4-----4---------4-----4---------4-----4-------4----4----------|-
E|-2---------5/4/2-2--------5/4/2-2--------5/4/2-2----------------|-
Simona
I guess it's over
My memory plays our tune
The same old song

Chorus 02:09
G|----------------------------------------------|-
D|-----2----------2----------2----------2-------|- 
A|---4--4-2-2---4--4-2-2---4--4-2-2---4--4-2----|-
E|-2----------2----------2-----------2----------|-
I would call you up every Saturday night
And we both stayed out 'til the morning light
G|----------------------------------------------|-
D|---------------------7---------7--------------|- 
A|-5---------5----------7-9-7-9---7-9-7---------|-
E|---7-5-7-5---7-5-7--------------------0-------|-
And we sang, "Here we go again"
G|----------------------------------------------|-
D|-----2----------2----------2----------2-------|- 
A|---4--4-2-2---4--4-2-2---4--4-2-2---4--4-2-2--|-
E|-2----------2----------2-----------2----------|-
And though time goes by
I will always be
In a club with you in 1973
G|----------------------------------------------|-
D|---------------------7---------7--------------|- 
A|-5---------5----------7-9-7-9---7-9-7---------|-
E|---7-5-7-5---7-5-7--------------------2~------|-
Singing "Here we go again"

Instrumental 02:41
G|------------------------------------|-
D|------------------------------------|-  
A|-5~-5-5--------------------7~-7-7---|-
E|---------7~-7-7---5~-5-5------------|-

G|------------------------------------|-
D|------------------------------------|-  
A|-5~-5-5-----------7~-7-7---8~-8-8---|-
E|---------7~-7-7-------------------2-|-

Bridge : 02:56
G|---------------------------------------|-
D|---------------------------------------|-  
A|---------------5---0-5-----------------|- x2
E|-2----2----2-------------5--0--5--4--2-|-
I would call you up every Saturday night
And we both stayed out 'til the morning light
And we sang, "Here we go again"
And though time goes by
I will always be
In a club with you in 1973
Singing "Here we go again"


Chorus x2 03:27
G|----------------------------------------------|-
D|-----2----------2----------2----------2-------|- 
A|---4--4-2-2---4--4-2-2---4--4-2-2---4--4-2----|-
E|-2----------2----------2-----------2----------|-
I would call you up every Saturday night
And we both stayed out 'til the morning light
G|----------------------------------------------|-
D|---------------------7---------7--------------|- 
A|-5---------5----------7-9-7-9---7-9-7---------|-
E|---7-5-7-5---7-5-7--------------------0-------|-
And we sang, "Here we go again"
G|----------------------------------------------|-
D|-----2----------2----------2----------2-------|- 
A|---4--4-2-2---4--4-2-2---4--4-2-2---4--4-2-2--|-
E|-2----------2----------2-----------2----------|-
And though time goes by
I will always be
In a club with you in 1973
G|----------------------------------------------|-
D|---------------------7---------7--------------|- 
A|-5---------5----------7-9-7-9---7-9-7---------|-
E|---7-5-7-5---7-5-7--------------------2-------|-
Singing "Here we go again"

Outro 03:59
G|----------------------------------------------|-
D|----------------------------------------------|-
A|-5-555555----7-777777----7-777777-------------|-
E|-------------------------------------5~~~~~---|-
And though time goes by
I will always be
In a club with you
In 19 73

End : 04:40
Suggest correction
comments
print report bad tab
guest
You may want to rate the tab now too:
select rating
Wanna post a correction for this tab? Suggest correction