Oops, an error
Loading. Please wait.

Back To Bedlam Chords

version 1
version 1

Album

18,125 views 12 this week
28 commentsread comments
1 2 3 4 5
accurate
x 12
add to favorites
launch autoscroll
font size
0
reset
transpose
0
reset
simplify chords
- display chords -
guitar tuner
Tab Pro tools
  • play this tab
  • loop segment
  • change instrument
  • show fretboard
  • metronome
Autoscroll
slow
fast
+/-
esc
set tempo
stop
Contributor
JAMES BLUNT
BACK TO BEDLAM (ALBUM)
-------------------------------------------------------------
High (Standard Tuning, Capo on 3rd)

Intro:	G G // G G //

Verse: 	G Em7sus4/B // Em Em7 // A 
//

Chorus:	Cadd9 D // Em7 Cadd9 //

Bridge:	Em C // A7 C //
-------------------------------------------------------------
You’re Beautiful (Standard Tuning, Capo on 8th)

Intro:	G // G/F# // Em7 // Cadd9 //

Verse:	G // G/F# // Em7 // Cadd9 (Dsus4/F#) //

Chorus	Cadd9 Dsus4/F# // Em7 //
and	Cadd9 Dsus4/F# // G G //
Outro:	Cadd9 Dsus4/F# // G (Em7) //
	Cadd9 Dsus4/F# // Em7 Em7 //
	Cadd9 Dsus4/F# // G G // (G/F# 
//

Bridge:	Cadd9 // Em7 // Cadd9 // Dsus4/F# //
-------------------------------------------------------------
Wisemen (Standard Tuning, play chords as arpeggios)

Intro:      E|-6-----6-5--------5-----5-3----------||
            B|---8-------6--------6-------5--------||
            G|-----7-------7--------5-------5------||
            D|-------------------------------------||
            A|-------------------------------------||
            E|-------------------------------------||

Verse:	    Gm // Dm // F // C //

Prechorus:  Bb // C //

Chorus:	    Cm Eb // Bb F //
	    Cm Ab // Bb F //
-------------------------------------------------------------
Goodbye My Lover (Standard Tuning)

Verse:	E C#m // A A (B) //

Chorus:	E // C#m // A // A (B) //

Bridge:	A C#m // A B //

Outro: 	E C#m // A A (B) //
-------------------------------------------------------------
Tears and Rain (Standard Tuning)

Intro:	    G Bm // Em Em // C C //

Verse:	    G Bm // Em Em // C C //

Chorus:	    G D // Em C //
	    G Bm // Em C //
	    G // D // G // D //

Interlude:  G // D // Em // C //
	    G // Bm // Em // C //
-------------------------------------------------------------
Out Of My Mind (Standard Tuning)

Intro:	    Gm // A // Dm // Bb //

Verse:      Gm // A // Dm // Bb //

Prechorus:  F // C // Dm // Bb //

Chorus:	    Gm // Bb // F // Am (C) //
-------------------------------------------------------------
So Long Jimmy (Standard Tuning)

Intro:	Am // Am // Am // Am //
	Am // C // F // Em Bb //

Verse:	Am // C // F // Em Bb //
	Am // C // F // F//

Chorus:	C // Em // Am C // F //
	C // Em // Am C // D //
	F // F // G // G // Am //
-------------------------------------------------------------
Billy (Standard Tuning, Capo on 3rd)

Intro:	Em // G // D // D //

Verse:	Em // G // D // D //
	Em // G // D // D //
	Em // G // D // D //
	D // Cadd9 // Cadd9 // D //

Chorus:	G // Em // D // D //
 	G // Em // D // D //
	Em // G // D // D //
	D // Cadd9 // Cadd9 // D //

Bridge:	Cadd9 // Em // G // D //
	Cadd9 // Em // G // D //
	Cadd9 // Em // G // D //
	Cadd9 // Cadd9 // D // D //
-------------------------------------------------------------
Cry (Standard Tuning)

Intro:  e-----------------------------------------------------------||
        b-----------------------------------------------------------||
        g---4-2-4---4-2-4---2-0-2-4-----4-2-4---2-0-2---2-0-2-4-----||
        d-2-------0-----------------0-2-------0------0---------0-0--||
        a-----------------3-----------------------------------------||
        e-----------------------------------------------------------||

Verse:	Em // Bm // C // D //

Chorus:	G // Bm // Em // C //
	G // D // C // G //

Bridge:	D // G // Em // C //
	D // G // Bm // Bm //
-------------------------------------------------------------
No Bravery (Standard Tuning)

Intro:	Am // E // G // D //

Verse:	Am // E // G // D //
	Am // E // G // D //

Chorus:	Am // E // G // D //
	Am // E // G // D //
	F // D // F // D //

Yeah...
comments
print report bad tab
28 comments total. Showing first comments.
0 reply
seanfromlj wrote on March 27 2006, 07:24 am

nice job on some of them.

High has a capo on the 3rd fret.

on Tears and Rain, there's a G chord between the C & D.

I use a capo on the 3rd in Wiseman, too.

that's all i can think of for now. good luck.

0 reply
_flea_ wrote on March 27 2006, 01:26 pm

good job, I cant critticise...mainly cause I dont understand half of it or know/like the songs...but ah well, and I know you're not the best at English but...I could have told you that you're pretty hunni! XD

0 reply
_BaXteR_ wrote on March 29 2006, 10:45 am

its ment to say pretty sure, not pretty. and its james blunts LIVE album, not back 2 bedlam! and theres a please missing at the end. sorry ppl i cant spk english

I want to post or [tab]
guest
You may want to rate the tab now too:
select rating
Please do not post tabs as comments. Select "correction" instead!