Oops, an error
Loading. Please wait.

Bonfire Heart Tab

version 2
version 2

Whole song

Interactive

Video

7,860 views 6 this week
3 commentsread comments
1 2 3 4 5
x 9
add to favorites
launch autoscroll
font size
0
reset
how to read this tab
guitar tuner
Autoscroll
slow
fast
+/-
esc
set tempo
stop
Help us to improve Ultimate-Guitar.com Take our survey!
×
Author
Difficulty
intermediate
James Blunt - Bonfire Heart

Intro: 

(C)
|----------------|----------------|----------------|----------------|
|----1-----------|----1-----------|----1-----------|----1-----------|
|----------0-----|----------0-----|----------0-----|--------0-------|
|--------------2-|--------------2-|--------------2-|------------2---|
|3---------------|3---------------|3---------------|3---------------|
|----------------|----------------|----------------|----------------|

1st Verse
(C)
|----------------|----------------|----------------|----------------|
|----1-----------|----1-----------|----1-----------|----1-----------|
|----------0-----|----------0-----|----------0-----|--------0-------|
|--------------2-|--------------2-|--------------2-|------------2---|
|3---------------|3---------------|3---------------|3---------------|
|----------------|----------------|----------------|----------------|
           Your   mouth   is  a  revolver,   firing bullets in the - 

(Em)
|----------------|----------------|----------------|----------------|
|----0-----------|----0-----------|----0-----------|----0-----------|
|----------0-----|----------0-----|----------0-----|--------0-------|
|--------------2-|--------------2-|--------------2-|------------2---|
|----------------|2---------------|----------------|2---------------|
|0---------------|----------------|0---------------|----------------|
 sky                                                hmmmm-mmmmm

(C)
|----------------|----------------|----------------|----------------|
|----1-----------|----1-----------|----1-----------|----1-----------|
|----------0-----|----------0-----|----------0-----|--------0-------|
|--------------2-|--------------2-|--------------2-|------------2---|
|3---------------|3---------------|3---------------|3---------------|
|----------------|----------------|----------------|----------------|
           Your   love is like  a  soldier,         loyal till you -

(Em)
|----------------|----------------|----------------|----------------|
|----0-----------|----0-----------|----0-----------|----0-----------|
|----------0-----|----------0-----|----------0-----|--------0-------|
|--------------2-|--------------2-|--------------2-|------------2---|
|----------------|2---------------|----------------|2---------------|
|0---------------|----------------|0---------------|----------------|
        die                                         hmmmm-mmmmm

(F)
|----------------|----------------|----------------|----------------|
|----1-----------|----1-----------|----1-----------|----1-------1---|
|----------2-----|----------2-----|----------2-----|----------------|
|--------------3-|--------------3-|--------------3-|----------------|
|----------------|----------------|----------------|----------------|
|1---------------|1---------------|1---------------|1-------3-------|
    And I've been lookin' at  the  stars,     for a long    long -

(Am)
|----0-----------|----0-----------|----0-----------|----------------|
|----------1-----|----------1-----|----------1-----|----1-------1---|
|--------------2-|--------------2-|--------------2-|----------------|
|----------------|----------------|----------------|----------------|
|0---------------|0---------------|0---------------|0-------2-------|
|----------------|----------------|----------------|----------------|
 time   I've been puttin'   out    fires,           all     my -

(C)
|----3-----------|----3-----------|----3-----------|----3-----------|
|----------2-----|----------2-----|----------2-----|----------------|
|--------------0-|--------------0-|--------------0-|----------------|
|----------------|----------------|----------------|--------0-------|
|3---------------|3---------------|3---------------|3-----------3---|
|----------------|----------------|----------------|----------------|
 life        Everybody wants  a  flame,  they don't wanna get burn -

(G)
|----------------|----------------|----------------|----------------|
|----3-----------|----3-----------|3---------------|----------------|
|----------0-----|----------0-----|----------------|----------------|
|--------------0-|--------------0-|----------------|----------------|
|----------------|----------------|----------------|----------------|
|3---------------|3---------------|3---------------|----------------|
 ed                            And to-day is our turn


Chorus

(C)
|----------------|----------------|----------------|----------------|
|----1-----------|----1-----------|----1-----------|----1-------1---|
|----------0-----|----------0-----|----------0-----|----------------|
|--------------2-|--------------2-|--------------2-|----------------|
|3---------------|3---------------|3---------------|3-------2-------|
|----------------|----------------|----------------|----------------|
                  Days     like    these,           lead    to

(Am)
|----------------|----------------|----------------|----------------|
|----1-----------|----1-----------|----1-----------|----1-------1---|
|----------2-----|----------2-----|----------2-----|----------------|
|--------------2-|--------------2-|--------------2-|----------------|
|0---------------|0---------------|0---------------|0---------------|
|----------------|----------------|----------------|--------3-------|
                  Nights   like    this,            lead    to

(F)
|----------------|----------------|----------------|----------------|
|----1-----------|----1-----------|----1-----------|----1-------1---|
|----------2-----|----------2-----|----------2-----|----------------|
|--------------3-|--------------3-|--------------3-|----------------|
|----------------|----------------|----------------|----------------|
|1---------------|1---------------|1---------------|1-------3-------|
                  Love    like     ours,            you light the -

(Am)                              (G)
|----0-----------|----0-----------|----------------|----------------|
|----------1-----|----------1-----|----3-----------|----3-----------|
|--------------2-|--------------2-|----------0-----|----------0-----|
|----------------|----------------|--------------0-|--------------0-|
|0---------------|0---------------|----------------|----------------|
|----------------|----------------|3---------------|3---------------|
 spark  in   my   bonfire      heart

(C)
|----------------|----------------|----------------|----------------|
|----1-----------|----1-----------|----1-----------|----1-------1---|
|----------0-----|----------0-----|----------0-----|----------------|
|--------------2-|--------------2-|--------------2-|----------------|
|3---------------|3---------------|3---------------|3-------2-------|
|----------------|----------------|----------------|----------------|
                  People    like   us,      we      don't

(Am)
|----------------|----------------|----------------|----------------|
|----1-----------|----1-----------|----1-----------|----1-------1---|
|----------2-----|----------2-----|----------2-----|----------------|
|--------------2-|--------------2-|--------------2-|----------------|
|0---------------|0---------------|0---------------|0---------------|
|----------------|----------------|----------------|--------3-------|
                  Need    that     much,            just    some-

(F)
|----------------|----------------|----------------|----------------|
|----1-----------|----1-----------|----1-----------|----1-------1---|
|----------2-----|----------2-----|----------2-----|----------------|
|--------------3-|--------------3-|--------------3-|----------------|
|----------------|----------------|----------------|----------------|
|1---------------|1---------------|1---------------|1-------3-------|
                  one     that     starts,             starts the -

(Am)                              (G)
|----0-----------|----0-----------|----------------|----------------|
|----------1-----|--------1-------|----3-----------|----3-----------|
|--------------2-|------------2---|----------0-----|--------0-------|
|----------------|----------------|--------------0-|------------0---|
|0---------------|0---------------|----------------|----------------|
|----------------|----------------|3---------------|3---------------|
 spark  in  our   bon - fire    hearts


2nd Verse

(C)
|----------------|----------------|----------------|----------------|
|----1-----------|----1-----------|----1-----------|----1-----------|
|----------0-----|----------0-----|----------0-----|--------0-------|
|--------------2-|--------------2-|--------------2-|------------2---|
|3---------------|3---------------|3---------------|3---------------|
|----------------|----------------|----------------|----------------|
             This world is getting colder,          strangers passing 

(Em)
|----------------|----------------|----------------|----------------|
|----0-----------|----0-----------|----0-----------|----0-----------|
|----------0-----|----------0-----|----------0-----|--------0-------|
|--------------2-|--------------2-|--------------2-|------------2---|
|----------------|2---------------|----------------|2---------------|
|0---------------|----------------|0---------------|----------------|
 by                                                 hmmmm-mmmmm

(C)
|----------------|----------------|----------------|----------------|
|----1-----------|----1-----------|----1-----------|----1-----------|
|----------0-----|----------0-----|----------0-----|--------0-------|
|--------------2-|--------------2-|--------------2-|------------2---|
|3---------------|3---------------|3---------------|3---------------|
|----------------|----------------|----------------|----------------|
           No one offers you a shoulder,     no one looks you in the -

(Em)
|----------------|----------------|----------------|----------------|
|----0-----------|----0-----------|----0-----------|----0-----------|
|----------0-----|----------0-----|----------0-----|--------0-------|
|--------------2-|--------------2-|--------------2-|------------2---|
|----------------|2---------------|----------------|2---------------|
|0---------------|----------------|0---------------|----------------|
 eye                      ah       ah               hmmmm-mmmmm

(F)
|----------------|----------------|----------------|----------------|
|----1-----------|----1-----------|----1-----------|----1-------1---|
|----------2-----|----------2-----|----------2-----|----------------|
|--------------3-|--------------3-|--------------3-|----------------|
|----------------|----------------|----------------|----------------|
|1---------------|1---------------|1---------------|1-------3-------|
    But I've been lookin'  at   you,         for a long    long -

(Am)
|----0-----------|----0-----------|----0-----------|----------------|
|----------1-----|----------1-----|----------1-----|----1-------1---|
|--------------2-|--------------2-|--------------2-|----------------|
|----------------|----------------|----------------|----------------|
|0---------------|0---------------|0---------------|0-------2-------|
|----------------|----------------|----------------|----------------|
 time        Just trying to break through, trying to make  you -

(C)
|----3-----------|----3-----------|----3-----------|----3-----------|
|----------2-----|----------2-----|----------2-----|----------------|
|--------------0-|--------------0-|--------------0-|----------------|
|----------------|----------------|----------------|--------0-------|
|3---------------|3---------------|3---------------|3-----------3---|
|----------------|----------------|----------------|----------------|
 mine        Everybody wants  a  flame,  they don't wanna get burn -

(G)
|----------------|----------------|----------------|----------------|
|----3-----------|----3-----------|3---------------|----------------|
|----------0-----|----------0-----|----------------|----------------|
|--------------0-|--------------0-|----------------|----------------|
|----------------|----------------|----------------|----------------|
|3---------------|3---------------|3---------------|----------------|
 ed                           well to-day is our turn


Chorus

(C)
|----------------|----------------|----------------|----------------|
|----1-----------|----1-----------|----1-----------|----1-------1---|
|----------0-----|----------0-----|----------0-----|----------------|
|--------------2-|--------------2-|--------------2-|----------------|
|3---------------|3---------------|3---------------|3-------2-------|
|----------------|----------------|----------------|----------------|
                  Days     like    these,           lead    to

(Am)
|----------------|----------------|----------------|----------------|
|----1-----------|----1-----------|----1-----------|----1-------1---|
|----------2-----|----------2-----|----------2-----|----------------|
|--------------2-|--------------2-|--------------2-|----------------|
|0---------------|0---------------|0---------------|0---------------|
|----------------|----------------|----------------|--------3-------|
                  Nights   like    this,            lead    to

(F)
|----------------|----------------|----------------|----------------|
|----1-----------|----1-----------|----1-----------|----1-------1---|
|----------2-----|----------2-----|----------2-----|----------------|
|--------------3-|--------------3-|--------------3-|----------------|
|----------------|----------------|----------------|----------------|
|1---------------|1---------------|1---------------|1-------3-------|
                  Love    like     ours,            you light the -

(Am)                              (G)
|----0-----------|----0-----------|----------------|----------------|
|----------1-----|----------1-----|----3-----------|----3-----------|
|--------------2-|--------------2-|----------0-----|----------0-----|
|----------------|----------------|--------------0-|--------------0-|
|0---------------|0---------------|----------------|----------------|
|----------------|----------------|3---------------|3---------------|
 spark  in  my    bonfire      heart

(C)
|----------------|----------------|----------------|----------------|
|----1-----------|----1-----------|----1-----------|----1-------1---|
|----------0-----|----------0-----|----------0-----|----------------|
|--------------2-|--------------2-|--------------2-|----------------|
|3---------------|3---------------|3---------------|3-------2-------|
|----------------|----------------|----------------|----------------|
                  People    like   us,      we      don't

(Am)
|----------------|----------------|----------------|----------------|
|----1-----------|----1-----------|----1-----------|----1-------1---|
|----------2-----|----------2-----|----------2-----|----------------|
|--------------2-|--------------2-|--------------2-|----------------|
|0---------------|0---------------|0---------------|0---------------|
|----------------|----------------|----------------|--------3-------|
                  Need    that     much,            just    some-

(F)
|----------------|----------------|----------------|----------------|
|----1-----------|----1-----------|----1-----------|----1-------1---|
|----------2-----|----------2-----|----------2-----|----------------|
|--------------3-|--------------3-|--------------3-|----------------|
|----------------|----------------|----------------|----------------|
|1---------------|1---------------|1---------------|1-------3-------|
                  one     that     starts,            starts the -

(Am)                              (G)
|----0-----------|----0-----------|----------------|----------------|
|----------1-----|--------1-------|----3-----------|----3-----------|
|--------------2-|------------2---|----------0-----|--------0-------|
|----------------|----------------|--------------0-|------------0---|
|0---------------|0---------------|----------------|----------------|
|----------------|----------------|3---------------|3---------------|
 spark  in  our   bon - fire    hearts


Intro to bridge

(G)
|----------------|----------------|
|----3-----------|----3-----------|
|----------0-----|--------0-------|
|--------------0-|------------0---|
|----------------|----------------|
|3---------------|3---------------|
 mmm,      In our bonfire hearts


Bridge

(F)
|------------0---|------------0---|------------0---|------------0---|
|------1---------|------1---------|------1---------|------1---------|
|----0-----------|----0-----------|----0-----------|----0-----------|
|----------------|----------------|----------------|----------------|
|----------------|----------------|----------------|----------------|
|1---------------|1---------------|1---------------|1---------------|
                                             In our bonfire hearts 

(Am)
|------------0---|------------0---|------------0---|------------0---|
|------1---------|------1---------|------1---------|------1---------|
|----0-----------|----0-----------|----0-----------|----0-----------|
|----------------|----------------|----------------|----------------|
|0---------------|0---------------|0---------------|0---------------|
|----------------|----------------|----------------|----------------|
                                   Oooooo   In our bonfire hearts 

(C)
|------------0---|------------0---|------------0---|------------0---|
|------1---------|------1---------|------1---------|------1---------|
|----0-----------|----0-----------|----0-----------|----0-----------|
|----------------|----------------|----------------|----------------|
|3---------------|3---------------|3---------------|3---------------|
|----------------|----------------|----------------|----------------|
                                           Mmmmmmm  You  light  the 
(G)
|----------------|----------------|----------------|----------------|
|------------3---|------------3---|------------3---|------------3---|
|------5---------|------5---------|------5---------|------5---------|
|----0-----------|----0-----------|----0-----------|----0-----------|
|----------------|----------------|----------------|----------------|
|3---------------|3---------------|3---------------|3---------------|
 spark


Return to chorus Ending

(C)
|----------------|----------------|----------------|----------------|
|----1-----------|----1-----------|----1-----------|----1-------1---|
|----------0-----|----------0-----|----------0-----|----------------|
|--------------2-|--------------2-|--------------2-|----------------|
|3---------------|3---------------|3---------------|3-------2-------|
|----------------|----------------|----------------|----------------|
                  People    like   us,      we      don't

(Am)
|----------------|----------------|----------------|----------------|
|----1-----------|----1-----------|----1-----------|----1-------1---|
|----------2-----|----------2-----|----------2-----|----------------|
|--------------2-|--------------2-|--------------2-|----------------|
|0---------------|0---------------|0---------------|0---------------|
|----------------|----------------|----------------|--------3-------|
                  Need    that     much,            just    some-

(F)
|----------------|----------------|----------------|----------------|
|----1-----------|----1-----------|----1-----------|----1-------1---|
|----------2-----|----------2-----|----------2-----|----------------|
|--------------3-|--------------3-|--------------3-|----------------|
|----------------|----------------|----------------|----------------|
|1---------------|1---------------|1---------------|1-------3-------|
                  one     that     starts,            starts the -

(Am)                              (G)
|----0-----------|----0-----------|----------------|----------------|
|----------1-----|--------1-------|----------------|----------------|
|--------------2-|------------2---|----------------|----------------|
|----------------|----------------|----------------|----------------|
|0---------------|0---------------|----------------|----------------|
|----------------|----------------|3---------------|----------------|
 spark  in  our   bon - fire    hearts


Chorus Ending

(C)
|----------------|----------------|----------------|----------------|
|----1-----------|----1-----------|----1-----------|----1-------1---|
|----------0-----|----------0-----|----------0-----|----------------|
|--------------2-|--------------2-|--------------2-|----------------|
|3---------------|3---------------|3---------------|3-------2-------|
|----------------|----------------|----------------|----------------|
                  Days     like    these,           lead    to

(Am)
|----------------|----------------|----------------|----------------|
|----1-----------|----1-----------|----1-----------|----1-------1---|
|----------2-----|----------2-----|----------2-----|----------------|
|--------------2-|--------------2-|--------------2-|----------------|
|0---------------|0---------------|0---------------|0---------------|
|----------------|----------------|----------------|--------3-------|
                  Nights   like    this,            lead    to

(F)
|----------------|----------------|----------------|----------------|
|----1-----------|----1-----------|----1-----------|----1-------1---|
|----------2-----|----------2-----|----------2-----|----------------|
|--------------3-|--------------3-|--------------3-|----------------|
|----------------|----------------|----------------|----------------|
|1---------------|1---------------|1---------------|1-------3-------|
                  Love    like     ours,            you light the -

(Am)                              (G)  
|----0-----------|----0-----------|----------------|----------------|
|----------1-----|----------1-----|----3-----------|----3-----------|
|--------------2-|--------------2-|----------0-----|----------0-----|
|----------------|----------------|--------------0-|--------------0-|
|0---------------|0---------------|----------------|----------------|
|----------------|----------------|3---------------|3---------------|
 spark  in   my   bonfire      heart

(C)
|----------------|----------------|----------------|----------------|
|----1-----------|----1-----------|----1-----------|----1-------1---|
|----------0-----|----------0-----|----------0-----|----------------|
|--------------2-|--------------2-|--------------2-|----------------|
|3---------------|3---------------|3---------------|3-------2-------|
|----------------|----------------|----------------|----------------|
                  People    like   us,      we      don't

(Am)
|----------------|----------------|----------------|----------------|
|----1-----------|----1-----------|----1-----------|----1-------1---|
|----------2-----|----------2-----|----------2-----|----------------|
|--------------2-|--------------2-|--------------2-|----------------|
|0---------------|0---------------|0---------------|0---------------|
|----------------|----------------|----------------|--------3-------|
                  Need    that     much,            just    some-

(F)
|----------------|----------------|----------------|----------------|
|----1-----------|----1-----------|----1-----------|----1-------1---|
|----------2-----|----------2-----|----------2-----|----------------|
|--------------3-|--------------3-|--------------3-|----------------|
|----------------|----------------|----------------|----------------|
|1---------------|1---------------|1---------------|1-------3-------|
                  one     that     starts,            starts the -

(Am)                              (G)
|----0-----------|----0-----------|----------------|----------------|
|----------1-----|--------1-------|----3-----------|----3-----------|
|--------------2-|------------2---|----------0-----|--------0-------|
|----------------|----------------|--------------0-|------------0---|
|0---------------|0---------------|----------------|----------------|
|----------------|----------------|3---------------|3---------------|
 spark  in  our   bon - fire    hearts       (our bonfire hearts)

(C)
|----------------|----------------|----------------|----------------|
|----1-----------|----1-----------|----1-----------|----1-------1---|
|----------0-----|----------0-----|----------0-----|----------------|
|--------------2-|--------------2-|--------------2-|----------------|
|3---------------|3---------------|3---------------|3-------2-------|
|----------------|----------------|----------------|----------------|
                  Days     like    these,           lead    to

(Am)
|----------------|----------------|----------------|----------------|
|----1-----------|----1-----------|----1-----------|----1-------1---|
|----------2-----|----------2-----|----------2-----|----------------|
|--------------2-|--------------2-|--------------2-|----------------|
|0---------------|0---------------|0---------------|0---------------|
|----------------|----------------|----------------|--------3-------|
                  Nights   like    this,            lead    to

(F)
|----------------|----------------|----------------|----------------|
|----1-----------|----1-----------|----1-----------|----1-------1---|
|----------2-----|----------2-----|----------2-----|----------------|
|--------------3-|--------------3-|--------------3-|----------------|
|----------------|----------------|----------------|----------------|
|1---------------|1---------------|1---------------|1-------3-------|
                  Love    like     ours,            you light the -

(Am)                              (G)  
|----0-----------|----0-----------|----------------|----------------|
|----------1-----|----------1-----|----3-----------|----3-----------|
|--------------2-|--------------2-|----------0-----|----------0-----|
|----------------|----------------|--------------0-|--------------0-|
|0---------------|0---------------|----------------|----------------|
|----------------|----------------|3---------------|3---------------|
 spark  in  my    bonfire      heart

(C)
|----------------|----------------|----------------|----------------|
|----1-----------|----1-----------|----1-----------|----1-------1---|
|----------0-----|----------0-----|----------0-----|----------------|
|--------------2-|--------------2-|--------------2-|----------------|
|3---------------|3---------------|3---------------|3-------2-------|
|----------------|----------------|----------------|----------------|
                  People    like   us,      we      don't

(Am)
|----------------|----------------|----------------|----------------|
|----1-----------|----1-----------|----1-----------|----1-------1---|
|----------2-----|----------2-----|----------2-----|----------------|
|--------------2-|--------------2-|--------------2-|----------------|
|0---------------|0---------------|0---------------|0---------------|
|----------------|----------------|----------------|--------3-------|
                  Need    that     much,            just    some-

(F)
|----------------|----------------|----------------|----------------|
|----1-----------|----1-----------|----1-----------|----1-------1---|
|----------2-----|----------2-----|----------2-----|----------------|
|--------------3-|--------------3-|--------------3-|----------------|
|----------------|----------------|----------------|----------------|
|1---------------|1---------------|1---------------|1-------3-------|
                  one     that     starts,            starts the -

(Am)                              (G)
|----------------|----------------|----------------|----------------|
|----------------|----------------|----------------|----------------|
|----------------|----------------|----------------|----------------|
|----------------|----------------|----------------|----------------|
|----------------|----------------|----------------|----------------|
|----------------|----------------|----------------|----------------|
 spark in our     bon - fire    hearts


Suggest correction
comments
print report bad tab
3 comments total.
0 reply
monkeymiizs 10 Feb 11, 2014 12:52 PM

Spot on! Thanks!

0 reply
ianarthurkirk 10 Nov 25, 2015 01:42 PM

Lack of formatting. OK tab vbghhvg hhnn uytt gfds rttg dssa rt ghhj mnnb cdeecbhh bn mmkh gbbn yttr hjkk mlpo vfdd vbhh

0 reply
_greenday_ 10 Oct 15, 2016 09:42 PM

This tab is amazing!
But during the Bridge I prefer to play a "d" (3rd fret b-string) instead of the "c" (1st fret b-string) for the F, Am and C chords.
Nice Work

guest
You may want to rate the tab now too:
select rating
Wanna post a correction for this tab? Suggest correction