Oops, an error
Loading. Please wait.

Cry Tab

version 1
version 1

Intro

Whole song

Interactive

12,199 views 1 this week
3 commentsread comments
1 2 3 4 5
x 4
add to favorites
launch autoscroll
font size
0
reset
how to read this tab
guitar tuner
Autoscroll
slow
fast
+/-
esc
set tempo
stop
Help us to improve Ultimate-Guitar.com Take our survey!
×
Difficulty
novice
|-----------------------------------------------------------|
|-----------------------------------------------------------|
|-----------------------------------------------------------|
|----9-7-9----9-7-9----5-4-5--5/7------9-7-9---7-5-7---7-5-7|
|-7---------5--------3------------5--7-------7-------7------|
|-----------------------------------------------------------|

|------------------------------|
|------------------------------|
|------------------------------|
|--7/9-------4----5---7---5----|
|-------5----5----5---5---7----|
|------------------------------|
Suggest correction
comments
print report bad tab
3 comments total.
0 reply
Red_Mercury 10 Jan 24, 2006 11:00 PM

Sounds spot on to me. Well done! Great tab!

0 reply
mxzman 10 Feb 06, 2006 07:03 PM

YOu need a capo on the first fret, none of the tabs have that specification!

0 reply
Boyy 42 Apr 22, 2007 06:55 AM

|-----------------------------------------------------------|
|-----------------------------------------------------------|
|-----------------------------------------------------------|
|----9-7-9----9-7-9----5-3-5--5/7------9-7-9---7-5-7---7-5-7|
|-7---------5--------3------------5--7-------7-------7------|
|-----------------------------------------------------------|

|------------------------------|
|------------------------------|
|------------------------------|
|--7/9-------4----5---7---5----|
|-------5----5----5---5---7----|
|------------------------------|

That's the way it has to be! Looks like there is no diffrent but with the '3 (A-string) 5 4 5 (D-string) it was a little wrong.. and it's not with a capo on fret 1 and not without any capo, it's between it.. it's a little weird song actually..

guest
You may want to rate the tab now too:
select rating
Wanna post a correction for this tab? Suggest correction