Oops, an error
Loading. Please wait.

Same Mistake tab

version 1
version 1

Whole song

Interactive

64,487 views 6 this week
3 commentsread comments
1 2 3 4 5
1 last vote to show rating
add to favorites
×
Save as Personal and add changes to this tab that will be seen only by you. Learn more ›
×
You can save this tab as Personal to edit and correct it or add notes. All changes will be seen only by you. Learn more »
launch autoscroll
font size
0
reset
how to read this tab
guitar tuner
edit
Autoscroll
slow
fast
+/-
esc
set tempo
stop
Difficulty
intermediate
James Blunt Same Mistake
This tab isn't 100% accurate, it's my own interpretation - it's probably missing quite a
notes. However, I was looking for this tab and realised that no one has actually
one with the proper intro and first verse part so I decided to give it a shot. Don't 
it - write your own.

Stick a capo on fret 3

Intro

|--------------------------------2---------2--3--------------|
|--2-----------2--3-----------3------------------------------|
|--------------------------------0---------0--0----------0---|
|--0--------0--0--0--------0--0------------------------0-----|
|-----3---3----------3---3-----------3---3-------3---3-------|
|-------3--------------3---------------3-----------3---------|

|--------------------------------------------------|
|--2-----------2--3-----------3--------------------|
|--------------------------------0-----------------|
|--0--------0--0--0--------0--0-----0--------------|
|-----3---3----------3---3------------3-----3-0-2--|
|-------3--------------3----------------3-2--------|

Verse
|-3---------3-----------------3---------3-------------3-|
|-------------------------------------------------------|
|-------------0-----------0---------------0-------------|
|---------0-----0-------0-------------0-----0-------0---|
|---3---3---------3---3---------3---3---------3---3-----|
|-----3-------------3-------------3-------------3-------|

|-0-----------0----------------0-----------0---------------|
|----------------2---------2----------------------------3--|
|---------------------------------------------2----0-------|
|----------0-------------0--------------0-------0----0-----|
|----0---0---------0---0----------0---0-----------0----0---|
|------0-------------0--------------0----------------------|

|---------------------------------------------|
|----------3--------------3-------3----2------|
|------------2----------2-----------2----0----|
|--------0-----------0----------------0----0--|
|--1---1-------1---1--------1---1-------------|
|----0-----------0------------0---------------|

|-3---------3-----------------3---------3-------------3-|
|-------------------------------------------------------|
|-------------0-----------0---------------0-------------|
|---------0-----0-------0-------------0-----0-------0---|
|---3---3---------3---3---------3---3---------3---3-----|
|-----3-------------3-------------3-------------3-------|

|-0-----------0----------------0-----------0---------------|
|----------------2---------2----------------------------3--|
|---------------------------------------------2----0-------|
|----------0-------------0--------------0-------0----0-----|
|----0---0---------0---0----------0---0-----------0----0---|
|------0-------------0--------------0----------------------|

|---------------------------------------------|
|----------3--------------3-------3----2------|
|------------2----------2-----------2----0----|
|--------0-----------0----------------0----0--|
|--1---1-------1---1--------1---1-------------|
|----0-----------0------------0---------------|

This can be repeated through the first Ooo bridge.

The second Ooo bridge which leads into the chorus is strumming. The Chorus itself is
strumming.
These are the chords with the lyrics:

Bridge

  Em     C      G  D
Oooooo Oooooo Oooooo

Chorus

C                     G
I'm not calling for a second chance
    D                          Em
I'm screaming at the top of my voice
C                   G
Give me reason, but don't give me choice
           Am            C            G
Cause I'll just make the same mistake again

Oooooo


The verse following this can be played by strumming chords or the previous verse part.
way sounds cool.

VERSE (just incase you forget it's meant to be here)

The next part is a double chorus so the chord sequence is just looped. This is how it
with lyrics:


    Em     C      G  D
Oooooo Oooooo oooooo
C                     G
I'm not calling for a second chance
    D                          Em
I'm screaming at the top of my voice
C                   G
Give me reason, but don't give me choice
           Am            C
Cause I'll just make the same mistake
                     G
I'm not calling for a second chance
    D                          Em
I'm screaming at the top of my voice
C                   G
Give me reason, but don't give me choice
           Am            C            G
Cause I'll just make the same mistake again


This next bit is a new bit which follows a similar chord sequence but I have fitted to
so it makes more sense.


       Em     C
Oooooo Oooooo Oooooo
G                                 Em
Oooooo So while I'm turning in my sheets
                               C
Oooooo And once again I cannot sleep
                                    G
Oooooo Walk out the door and up the street

Oooooo Look at the stars
Em                               C
Oooooo Look at the stars falling down

Oooooo And I wonder where
                G
Oooooo Did I go wrong

And so this tab ends :)
Problems? Let me know so I can alter it.

            
            
Suggest correction
Creating personal tab
Creating personal tab
You can edit any tab online and save it as your Personal.

You can edit, replace or remove any tab part or add personal notes – all changes will be seen only by you.

Personal tabs can be accessed anytime from any device, even offline.
Learn more »
Give kudos to tab author, rate the tab!
1 2 3 4 5
comments
print report bad tab
3 comments total.
+1 reply
jackoz55 10 Jan 22, 2008 12:04 PM

u must be left handed its upside down ! re-write?

0 reply
Gona 10 Apr 03, 2009 01:55 PM

u must be left handed its upside down ! re-write?

0 reply
guitargiirl 260 Jul 29, 2009 01:41 AM

This is how I play the intro:
G/B Csus2 G5/F# G5
e|-------3---------------3---------|-------3---------------3---------
B|-----3---3-----------3---3-------|-----3---3-----------3---3------0
G|---0-------0---0---0-------0-----|---0-------0---0---0-------0---0-
D|---------------------------------|-------------0-------------------
A|-2-----------2---3-----------3---|---------------------------------
E|---------------------------------|-2---------------3-----------3---

G/B Csus2 D
e|-------3---------------3---------|---------3-2---------------------
B|-----3---3-----------3---3-------|-----3-------3-------------------
G|---0-------0---0---0-------0-----|---2-----------2-----------------
D|---------------------------------|-0-----0---------0---------------
A|-2-----------2---3-----------3---|---------------------------------
E|---------------------------------|---------------------------------

And then for the verses & chorus when the chords aren't strummed yet I do this:
G D/F#
e|------3---------------3----------|-------3---------------3---------
B|----3---3-----------3---3--------|-----3---3-----------3-----------
G|--0-------0---0---0-------0---0--|---0-------0---0---0-------------
D|----------------0-----------0----|-----------------0---------0---0-
A|---------------------------------|---------------------------------
E|-3----------3--------------------|-3-----------3-----------3---2---
Em
e|------0--------------0-----------|------0--------------0------0----
B|----0---0----------0---0---------|----0---0----------0------0------
G|----------0---0----------0---0---|----------0---0------------------
D|----------------2----------2-----|----------------2------0---------
A|---------------------------------|---------------------------------
E|-0----------0--------------------|-0----------0--------------------
C
e|------0--------------0-----------|-----0-------------0------0------
B|----1---1----------1---1---------|---1---1---------1------1--------
G|----------0---0----------0---0---|---------0---0-------------------
D|----------------2----------2-----|---------------2-----0-----------
A|-3----------3--------------------|-3---------3---------------------
E|---------------------------------|---------------------------------2x

Other the chords seem fine to me, though the D you use is actually a Bm, and for the chorus (ooh...) he plays the G for 2 bars, Em 2 bars, just like it's played in the verses when you fingerpick it but then the chords.:)

guest
Wanna post a correction for this tab? Suggest correction