Oops, an error
Loading. Please wait.

Same Mistake tab

version 2
version 2

Whole song

Interactive

78,195 views 33 this week
7 commentsread comments
1 2 3 4 5
x 24
add to favorites
×
Save as Personal and add changes to this tab that will be seen only by you. Learn more ›
×
You can save this tab as Personal to edit and correct it or add notes. All changes will be seen only by you. Learn more »
launch autoscroll
font size
0
reset
how to read this tab
guitar tuner
edit
Autoscroll
slow
fast
+/-
esc
set tempo
stop
Artist: James Blunt
Song: Same mistake
Tuning: Standard

Capo 3

[Intro]
e|-------------3-------------------3---------------------3---------------------3---------------|
B|----------3----3--------------3----3----------------3----3----------------3----3-------------|
G|-------0----------0---0----0---------0----0-----0-----------0----0-----0----------0----0-----|
D|---------------------------------------------------------------------------------------------|
A|----2---------------2----3--------------3----------------------------------------------------|
E|---------------------------------------------2-----------------2-----3--------------3--------|

e|-------------3---------------------3---------------------2--3p2------------------------------|
B|----------3----3----------------3----3----------------3----------3---------------------------|
G|-------0----------0----0-----0---------0----0------2---------------2-------------------------|
D|------------------------------------------------0--------------------0-----------------------|
A|----2----------------2----3---------------3--------------------------------------------------|
E|---------------------------------------------------------------------------------------------|

[Verse 1] x2
e|-----------3--------------------3---------------------3-------------------3---------3--------|
B|--------3----3---------------3----3----------------3----3---------------3---------3----------|
G|-----0----------0----0-----0--------0-----0----0----------0----0-----0---------0-------------|
D|------------------------0--------------0--------------------------0--------------------------|
A|---------------------------------------------------------------------------------------------|
E|--3----------------3-------------------------3---------------3--------------2----------------|

e|----------3-------------------3--------------------3--------------------3---------3----------|
B|-------3----3--------------3----3---------------3----3---------------3---------3-------------|
G|-----0--------0----0----0---------0-----0----0---------0----0-----0---------0----------------|
D|----------------------2--------------2-------------------------2---------0-------------------|
A|---------------------------------------------------------------------------------------------|
E|--0--------------0-------------------------0--------------0----------------------------------|

e|-----------3---------------------3---------------------3----------------------3---------3----|
B|--------3----3----------------3----3----------------3----3----------------3----------3-------|
G|-----0----------0----0-----0---------0----0-----0-----------0----0-----0----------0----------|
D|------------------------2---------------2---------------------------2----------0-------------|
A|--3----------------3--------------------------3----------------3-----------------------------|
E|---------------------------------------------------------------------------------------------|

[Chorus 1]
e|---------3------------------3------------------3------------------3---------3----------------|
B|------3----3--------------3---3--------------3---3--------------3---------3------------------|
G|----0--------0----0-----0-------0----0-----0-------0----0-----0---------0--------------------|
D|---------------------------------------------------------------------------------------------|
A|---------------------------------------------------------------------------------------------|
E|-3--------------3----3-------------3----3-------------3----3---------2-----------------------|

e|----------3-------------------3-------------------3--------------------3---------3-----------|
B|-------3----3--------------3----3--------------3----3---------------3---------3--------------|
G|-----0--------0----0----0---------0----0----0----------0----0-----0---------0----------------|
D|---------------------------------------------------------------2----------0------------------|
A|---------------------------------------------------------------------------------------------|
E|--0--------------0----0--------------0----0---------------0----------------------------------|

e|-----------3---------------------3---------------------3---------------------3-----------3---|
B|--------3----3----------------3----3----------------3----3----------------3-----------3------|
G|-----0----------0----0-----0----------0----0-----0----------0----0-----0-----------0---------|
D|--------------------------------------------------------------------2-----------0------------|
A|--3----------------3----3----------------3----3----------------3-----------------------------|
E|---------------------------------------------------------------------------------------------|

[Verse 2]
e|-----------3--------------------3---------------------3-------------------3---------3--------|
B|--------3----3---------------3----3----------------3----3---------------3---------3----------|
G|-----0----------0----0-----0--------0-----0----0----------0----0-----0---------0-------------|
D|------------------------0--------------0--------------------------0--------------------------|
A|---------------------------------------------------------------------------------------------|
E|--3----------------3-------------------------3---------------3--------------2----------------|

e|----------3-------------------3--------------------3--------------------3---------3----------|
B|-------3----3--------------3----3---------------3----3---------------3---------3-------------|
G|-----0--------0----0----0---------0-----0----0---------0----0-----0---------0----------------|
D|----------------------2--------------2-------------------------2---------0-------------------|
A|---------------------------------------------------------------------------------------------|
E|--0--------------0-------------------------0--------------0----------------------------------|

e|-----------3---------------------3---------------------3----------------------3---------3----|
B|--------3----3----------------3----3----------------3----3----------------3----------3-------|
G|-----0----------0----0-----0---------0----0-----0-----------0----0-----0----------0----------|
D|------------------------2---------------2---------------------------2----------0-------------|
A|--3----------------3--------------------------3----------------3-----------------------------|
E|---------------------------------------------------------------------------------------------|

[Chorus 2]
(End: Only strumming, no more picking)


************************************

| p  Pull-off

************************************

            
            
Suggest correction
Creating personal tab
Creating personal tab
You can edit any tab online and save it as your Personal.

You can edit, replace or remove any tab part or add personal notes – all changes will be seen only by you.

Personal tabs can be accessed anytime from any device, even offline.
Learn more »
comments
print report bad tab
7 comments total. Showing first comments.
0 reply
RyanCasey 10 Feb 20, 2008 11:48 PM

I messed up on the D, it should be
-3-
-3-
-2-
-0-
-0-
-2-

0 reply
|Seagull| 16 Feb 25, 2008 01:22 PM

Thanks for tabbing out the intro helps alot:)

0 reply
guitargiirl 260 Jul 29, 2009 01:50 AM

Great tab, most of the finger picking is to the point.
Got one correction for you, in the bridge (''I'm not calling...'') it actually plays a Bm instead of a D.
Also, in the ending in the bridge, where you have put an Am it plays a C, and where you've put a C it's actually a D/F#, so like this:
|C |G |Bm |Em |C |Em |C |D/F# |G |G
The 2 G's after are like the interlude to the new verse when he first plays the bridge and the second time he plays it twice and has no interlude, so no 2 G bars.;-)

guest
Wanna post a correction for this tab? Suggest correction