Oops, an error
Loading. Please wait.

So Long Jimmy tab

version 1
version 1

Whole song

9,642 views 3 this week
5 commentsread comments
1 2 3 4 5
x 5
add to favorites
×
Save as Personal and add changes to this tab that will be seen only by you. Learn more ›
×
You can save this tab as Personal to edit and correct it or add notes. All changes will be seen only by you. Learn more »
launch autoscroll
font size
0
reset
how to read this tab
guitar tuner
edit
Autoscroll
slow
fast
+/-
esc
set tempo
stop
Author
Difficulty
-----------------------------------------|
------1-------1-------1-------1----------|
----2-------2-------2-------2------------|
-----------------------------------------|
--0-------0-------0-------0-------0-2----|
-----------------------------------------|
I just can't believe that it's over.
-----------------------------------------|
------1-------1-------1-------1----------|
----0-------0-------0-------0------------|
-----------------------------------------|
--3-------3-------3-------3--------------|
------------------------------------3----|
We were chilling out on the sofa,
-----------------------------------------|
------1-------1-------1-------1----------|
----2-------2-------2-------2------------|
-----------------------------------------|
--3-------3-------3-------3--------------|
-----------------------------------------|
Digging how the guitar goes,
-----------------------------------------|
------1-------1-------1-------1----------|
----2-------2-------2-------2------------|
-----------------------------------------|
--3-------3-------3-------3--------------|
-----------------------------------------|
In a song that no one knows.
-----------------------------------------|
------0-------0-------0-------0----------|
----0-------0-------0-------0------------|
-----------------------------------------|
--2-------2-------2-------2--------------|
-----------------------------------------|
Did you lick that line yourself,
----------------------0-------0----------|
------0-------0-------3-------3----------|
----0-------0---------3-------3----------|
----------------------3-------3----------|
--2-------2-----------1-------1----------|
----------------------0-------0----------|
Or did the voodoo magic help?
-----------------------------------------|
------1-------1-------1-------1----------|
----2-------2-------2-------2------------|
-----------------------------------------|
--0-------0-------0-------0--------------|
-----------------------------------------|
Does everyone have a different take?
-----------------------------------------|
------1-------1-------1-------1----------|
----2-------2-------2-------2------------|
-----------------------------------------|
--0-------0-------0-------0-------0-2----|
-----------------------------------------|
Do you seem real but I seem fake?
-----------------------------------------|
------1-------1-------1-------1----------|
----0-------0-------0-------0------------|
-----------------------------------------|
--3-------3-------3-------3--------------|
------------------------------------3----|
Does everyone get hypnotized by your fire?

C               Em
So long, Jimmy, so long.
           Am            C
Though you only stayed a moment,
       F
We all know that you're the one. Singing,
c               Em
So long, Jimmy, so long.
           Am           C
Sure we're glad for the experience,
D
We miss you now you've gone.
           F
We're just swimming in your soul 'cause,
G
We all wish we wrote this song.
          Am
Life goes on.
-----------------------------------------|
------1-------1-------1-------1----------|
----2-------2-------2-------2------------|
-----------------------------------------|
--0-------0-------0-------0--------------|
-----------------------------------------| X2
REPEAT AS BEFORE
I'm just so relieved that it's over.
We were hanging out going nowhere,
Digging how the guitar goes,
In a song that no one knows.
Did you burn that bridge yourself,
Or did the voodoo magic help?
Does everyone have a different take?
Are you just cool and I'm just baked?
Does everyone get mesmerized by your fire?
CORUS
INSTRUMENTAL REPEAT about 40 times or until fadeout
-----------------------------------------|
------1-------1-------1-------1----------|
----2-------2-------2-------2------------|
-----------------------------------------|
--0-------0-------0-------0--------------|
-----------------------------------------|


Sould be ok
A.Jarbol

            
            
Suggest correction
Creating personal tab
Creating personal tab
You can edit any tab online and save it as your Personal.

You can edit, replace or remove any tab part or add personal notes – all changes will be seen only by you.

Personal tabs can be accessed anytime from any device, even offline.
Learn more »
comments
print report bad tab
5 comments total. Showing first comments.
0 reply
The_Raven 178 Oct 15, 2006 10:37 PM

Very good, I like it-I believe this is the only good James Blunt song.

0 reply
Boyy 42 Feb 26, 2007 06:03 AM

Well basicly it's good, but there are some little mistakes. The Am is played wrong, that's like this:
Am
e--------------------------|
B-----1-----1--------------|
G---2-----2----------------|
D-0-----0------------------|
A-------------0-2----------|
E--------------------------|
And after the C is not a 3 on the low E-snail, but a 2 on the A-snail.

0 reply
guitargiirl 260 Jun 05, 2007 10:48 AM

And that's a mistake as well! Should be something like this (check ver 2, that one's almost good!):
Am
e--------------------------|
B-----1-----1--------------|
G-----2-----2--------------|
D-0h2---0h2----------------|
A-------------0-2----------|
E--------------------------|

guest
You may want to rate the tab now too:
select rating
Wanna post a correction for this tab? Suggest correction