Oops, an error
Loading. Please wait.

Stay The Night Tab

version 1
version 1

Whole song

Interactive

16,618 views 7 this week
2 commentsread comments
1 2 3 4 5
excellent!
x 5
add to favorites
launch autoscroll
font size
0
reset
how to read this tab
guitar tuner
Tab Pro tools
  • play this tab
  • loop segment
  • change instrument
  • show fretboard
  • metronome
×
Best way to learn
"Stay The Night"
Autoscroll
slow
fast
+/-
esc
set tempo
stop
Contributor
Difficulty
intermediate
Stay The Night-James Blunt

Tuning:Standard
Listen to the song for extra help with the timing!
2 Guitars are used for the intro and after that its just 1!

Intro x2
Guitar 1 (Strum Pattern = D D U U D U)
   D                         A
e|-2-2-2-2-2-2-2-2-2-2-2-2-|-0-0-0-0-0-0-0-0-0-0-0-0-|
B|-3-3-3-3-3-3-3-3-3-3-3-3-|-2-2-2-2-2-2-2-2-2-2-2-2-|
G|-2-2-2-2-2-2-2-2-2-2-2-2-|-2-2-2-2-2-2-2-2-2-2-2-2-|
D|-0-0-0-0-0-0-0-0-0-0-0-0-|-2-2-2-2-2-2-2-2-2-2-2-2-|
A|-------------------------|-0-0-0-0-0-0-0-0-0-0-0-0-|
E|-------------------------|-------------------------|     
 |                         |                         |
Guitar 2                   |                         |
e|-----------------------5-|-----------------5-7-9-7-|
B|-------------------5-7---|---------------7---------|
G|-----------------7-------|-------------------------|
D|-------------------------|-------------------------|
A|-------------------------|-------------------------|
E|-------------------------|-------------------------|

   Bm                        G
e|-2-2-2-2-2-2-2-2-2-2-2-2-|-3-3-3-3-3-3-3-3-3-3-3-3-|
B|-3-3-3-3-3-3-3-3-3-3-3-3-|-3-3-3-3-3-3-3-3-3-3-3-3-|
G|-4-4-4-4-4-4-4-4-4-4-4-4-|-0-0-0-0-0-0-0-0-0-0-0-0-|
D|-4-4-4-4-4-4-4-4-4-4-4-4-|-0-0-0-0-0-0-0-0-0-0-0-0-|
A|-2-2-2-2-2-2-2-2-2-2-2-2-|-2-2-2-2-2-2-2-2-2-2-2-2-|
E|-------------------------|-3-3-3-3-3-3-3-3-3-3-3-3-|
 |                         |                         |
 |                         |                         |                      
e|----------------7-9-10---|-------------------------|
B|-----------------------8-|---------------8-7-5-7---|
G|-------------------------|-----------------------7-|
D|-------------------------|-------------------------|
A|-------------------------|-------------------------|
E|-------------------------|-------------------------|



Verse 1 x2
   A                         Bm
e|-0-----------------------|-2-----------------------|
B|-2-----------------------|-3-----------------------|
G|-2-----------------------|-4-----------------------|
D|-2-----------------------|-4-----------------------|
A|-0-----------------------|-2-----------------------|
E|-------------------------|-------------------------|
   Its seventy-two degrees,  Zero chance of rain,

   G                         D (Same strum pattern) 
e|-3-----------------------|-2-2-2-2-2-2-2-2----0----|
B|-3-----------------------|-3-3-3-3-3-3-3-3----2----|
G|-0-----------------------|-2-2-2-2-2-2-2-2----2----|
D|-0-----------------------|-0-0-0-0-0-0-0-0----2----|
A|-2-----------------------|--------------------0----|
E|-3-----------------------|-------------------------|
      It's been a perfect day....................


Verse 2

   E7
e|-0-----------------------|-3-----------------------|
B|-0-----------------------|-3-----------------------|
G|-1-----------------------|-0-----------------------|
D|-0-----------------------|-0-----------------------|
A|-2-----------------------|-2-----------------------|
E|-------------------------|-3-----------------------|
   We watched the sunset...   We all took it in

   Em
e|-0---------------------3-|---------0---------------|
B|-0---------------------3-|---------2---------------|
G|-0---------------------0-|---------2---------------|
D|-2---------------------0-|---------2---------------|
A|-2---------------------2-|---------0---------------|
E|-0---------------------3-|-------------------------|
   By the time that it...    Me and you had somethin


Chorus x3 (Strum Pattern D D U U D U)
   D                         A
e|-2-2-2-2-2-2-2-2-2-2-2-2-|-0-0-0-0-0-0-0-0-0-0-0-0-|
B|-3-3-3-3-3-3-3-3-3-3-3-3-|-2-2-2-2-2-2-2-2-2-2-2-2-|
G|-2-2-2-2-2-2-2-2-2-2-2-2-|-2-2-2-2-2-2-2-2-2-2-2-2-|
D|-0-0-0-0-0-0-0-0-0-0-0-0-|-2-2-2-2-2-2-2-2-2-2-2-2-|
A|-------------------------|-0-0-0-0-0-0-0-0-0-0-0-0-|
E|-------------------------|-------------------------|

   Bm                        G
e|-2-2-2-2-2-2-2-2-2-2-2-2-|-3-3-3-3-3-3-3-3-3-3-3-3-|
B|-3-3-3-3-3-3-3-3-3-3-3-3-|-3-3-3-3-3-3-3-3-3-3-3-3-|
G|-4-4-4-4-4-4-4-4-4-4-4-4-|-0-0-0-0-0-0-0-0-0-0-0-0-|
D|-4-4-4-4-4-4-4-4-4-4-4-4-|-0-0-0-0-0-0-0-0-0-0-0-0-|
A|-2-2-2-2-2-2-2-2-2-2-2-2-|-2-2-2-2-2-2-2-2-2-2-2-2-|
E|-------------------------|-3-3-3-3-3-3-3-3-3-3-3-3-|

Verse 1 x2
Verse 2
Chorus x3


Bridge
   E  G                   D  A/C# Bm  E   G  
e|-0--3-------------------2-------2---0---3---------|
B|-0--3-------------------3---2---3---0---3---------|
G|-1--0-------------------2---2---4---1---0---------|
D|-2--0-------------------0---2---4---2---0---------|
A|-2--2-----------------------4---2---2---2---------|
E|----3-----------------------------------3---------|
           Just like the song on my radio said
                           D  A/C# Bm  E   G
e|-------------------------2-------2---0---3--------|
B|-------------------------3---2---3---0---3--------|
G|-------------------------2---2---4---1---0--------|
D|-------------------------0---2---4---2---0--------|
A|-----------------------------4---2---2---2--------|
E|-----------------------------------------3--------|
          We'll share the shelter of my single bed

                    D  A/C# Bm  E   G             A7
e|------------------2-------2---0---3-------------0-|
B|------------------3---2---3---0---3-------------2-|
G|------------------2---2---4---1---0-------------0-|
D|------------------0---2---4---2---0-------------2-|
A|----------------------4---2---2---2-------------0-|
E|----------------------------------3---------------|
         But it's a different tune that's stuck.....

Chorus x4

END!
comments
print report bad tab
2 comments total.
0 reply
zecanela wrote on July 13 2014, 09:23 pm

Lack of accuracy.

0 reply
vyomdeepansh wrote on November 7 2015, 09:33 am

Solo (guitar 2) tab is wrong

I want to post or [tab]
guest
You may want to rate the tab now too:
select rating
Please do not post tabs as comments. Select "correction" instead!