Oops, an error
Loading. Please wait.

Time Of Our Lives tab

2,038 views 327 this week
no commentswrite comment
1 2 3 4 5
x 3
add to favorites
×
Save as Personal and add changes to this tab that will be seen only by you. Learn more ›
×
You can save this tab as Personal to edit and correct it or add notes. All changes will be seen only by you. Learn more »
launch autoscroll
font size
0
reset
how to read this tab
guitar tuner
edit
Autoscroll
slow
fast
+/-
esc
set tempo
stop
Author
Difficulty
About this tab version
Full tab with most parts. Fairly simple lyrical melody line is followed by guitars throughout. Was this info helpful? Yes No
James Blunt - Time of Our Lives
Tuning - Standard

[Intro]

e|--------------------------------------------------|
B|--------------------------------------------------|
G|----0-----0-----0-----0-----0-----0-----0-----0---|
D|--------------------------------------------------|
A|--------------------------------------------------|
E|-3-----3-----3-----3-----3-----3-----3-----3------|



[Verse]

 Acoustic
e|----------------------------------------------------|-------------------------------------------------|
B|----------------------------------------------------|-------------------------------------------------|
G|----0------0-----2-----4------4\-----------0-----5--|----4-----2--------------------------------------|
D|-----------0-----0-----0----------------------------|----------------2-----------0-----0-----0-----0--|
A|----------------------------------------------------|-------------------------------------------------|
E|-3-----3------3-----3------3------3-----3-----3-----|-3-----3-----3-----3-----3-----3-----3-----3-----|

e|----------------------------------------------------|-------------------------------------------------|
B|----------------------------------------------------|-------------------------------------------------|
G|-----------0-----2-----4------4~-----------2-----2--|----------------------0-----0-----0-----0-----0--|
D|----0-----------------------------------------------|----2-----2--------------------------------------|
A|----------------------------------------------------|-------------------------------------------------|
E|-3-----3------3-----3------3------3-----3-----3-----|-3-----3-----3-----3-----3-----3-----3-----3-----|

e|---------------------------------------------------|-------------------------------------------------|
B|---------------------------------------------------|-------------------------------------------------|
G|----0------0-----2-----4-----4\-----------0-----5--|----4-----2--------------------------------------|
D|---------------------------------------------------|----------------2-----------0-----0-----0-----0--|
A|---------------------------------------------------|-------------------------------------------------|
E|-3-----3------3-----3-----3------3-----3-----3-----|-3-----3-----3-----3-----3-----3-----3-----3-----|

e|---------------------------------------------------|-------------------------------------------------|
B|---------------------------------------------------|-------------------------------------------------|
G|-----------0-----2-----4-----4~-----------2--------|-2h4p2-------0--------0-----0-----0-----0-----0--|
D|----0----------------------------------------------|-------2-----------------------------------------|
A|---------------------------------------------------|-------------------------------------------------|
E|-3-----3------3-----3-----3------3-----3-----3-----|-------------------3-----3-----3-----3-----3-----|



[Verse Riff 2]
e|---------------------------------------------------|-------------------------------------------------|
B|-----------------3-----------5------------3--------|-------------------------------------------------|
G|----0------4-----------3------------------------5--|----4-----2-----2-----------0-----0-----0-----0--|
D|---------------------------------------------------|-------------------------------------------------|
A|---------------------------------------------------|-------------------------------------------------|
E|-3-----3------3-----3-----3------3-----3-----3-----|-3-----3-----3-----3-----3-----3-----3-----3-----|

e|---------------------------------------------------|-------------------------------------------------|
B|-----------------3-----------5------------3--------|-------------------------------------------------|
G|----0------4-----------3------------------------5--|----4-----2-----2-----------0-----0-----0-----0--|
D|---------------------------------------------------|-------------------------------------------------|
A|---------------------------------------------------|-------------------------------------------------|
E|-3-----3------3-----3-----3------3-----3-----3-----|-3-----3-----3-----3-----3-----3-----3-----3-----|

e|---------------------------------------------------|-------------------------------------------------|
B|---------------------------------------------------|-------------------------------------------------|
G|----0------0-----2-----4-----4\-----------0-----5--|----4-----2--------------------------------------|
D|---------------------------------------------------|----------------2-----------0-----0-----0-----0--|
A|---------------------------------------------------|-------------------------------------------------|
E|-3-----3------3-----3-----3------3-----3-----3-----|-3-----3-----3-----3-----3-----3-----3-----3-----|

e|---------------------------------------------------|-------------------------------------------------|
B|---------------------------------------------------|-------------------------------------------------|
G|-----------0-----2-----4-----4~-----------2--------|-2h4p2-------0--------0-----0-----0-----0-----0--|
D|----0----------------------------------------------|-------2-----------------------------------------|
A|---------------------------------------------------|-------------------------------------------------|
E|-3-----3------3-----3-----3------3-----3-----3-----|-------------------3-----3-----3-----3-----3-----|



[Chorus]

   Clean electric single note leads with rhythm chords shown above, play 2x

   Em                       C                         G                         D
e|-7--7--5--5--3--3-------|-12-12-10-10--8--8-------|-7-----7-----7-----7-----|-5-----5-----5-----5-----|
B|------------------------|-------------------------|-------------------------|----3-----3-----3-----3--|
G|------------------------|-------------------------|----7p0---7p0---7p0---7p0|-------------------------|
D|-5-----5-----5----------|/10----10----10----------|-------------------------|-4-4-4-4-4-4-4-4-4-4-4-4-|
A|------------------------|-------------------------|-------------------------|-------------------------|
E|------------------------|-------------------------|-------------------------|-------------------------|

  

    Ending
e|-8---7---5---3---2-------|-------------------------|
B|-------------------------|-------------------------|
G|-------------------------|---rest------------------|
D|-7---5---4---2---0-------|-------------------------|
A|-------------------------|-------------------------|
E|-------------------------|-------------------------|


[Verse 2] 

   Same as before on acoustic, but second Lead Acoustic plays melody notes one octave higher
e|---------------------------------------------------|-------------------------------------------------|
B|---------------------------------------------------|-------------------------------------------------|
G|----0------0-----2-----4-----4\-----------0-----5--|----4-----2--------------------------------------|
D|---------------------------------------------------|----------------2-----------0-----0-----0-----0--|
A|---------------------------------------------------|-------------------------------------------------|
E|-3-----3------3-----3-----3------3-----3-----3-----|-3-----3-----3-----3-----3-----3-----3-----3-----|

e|---------------------------------------------------|-------------------------------------------------|
B|---------------------------------------------------|-------------------------------------------------|
G|-----------0-----2-----4-----4~-----------2--------|-2h4p2-------0--------0-----0-----0-----0-----0--|
D|----0----------------------------------------------|-------2-----------------------------------------|
A|---------------------------------------------------|-------------------------------------------------|
E|-3-----3------3-----3-----3------3-----3-----3-----|-------------------3-----3-----3-----3-----3-----|

e|---------------------------------------------------|-------------------------------------------------|
B|-----------------3-----------5------------3--------|-------------------------------------------------|
G|----0------4-----------3------------------------5--|----4-----2-----2-----------0-----0-----0-----0--|
D|---------------------------------------------------|-------------------------------------------------|
A|---------------------------------------------------|-------------------------------------------------|
E|-3-----3------3-----3-----3------3-----3-----3-----|-3-----3-----3-----3-----3-----3-----3-----3-----|

e|---------------------------------------------------|-------------------------------------------------|
B|---------------------------------------------------|----------------0-----------0-----0-----0-----0--|
G|----0------4-----5-----5-----5------------4-----2--|----0-----0----------------0-----0-----0-----0---|
D|---------------------------------------------------|-------------------------------------------------|
A|---------------------------------------------------|-------------------------------------------------|
E|-3-----3------3-----3-----3------3-----3-----3-----|-3-----3-----3-----3-----3-----3-----3-----3-----|

e|---------------------------------------------------|-------------------------------------------------|
B|---------------------------------------------------|-------------------------------------------------|
G|----0------0-----2-----4-----4\-----------0-----5--|----4-----2--------------------------------------|
D|---------------------------------------------------|----------------2-----------0-----0-----0-----0--|
A|---------------------------------------------------|-------------------------------------------------|
E|-3-----3------3-----3-----3------3-----3-----3-----|-3-----3-----3-----3-----3-----3-----3-----3-----|

e|---------------------------------------------------|-------------------------------------------------|
B|---------------------------------------------------|-------------------------------------------------|
G|-----------0-----2-----4-----4~-----------2--------|-2h4p2-------0--------0-----0-----0-----0-----0--|
D|----0----------------------------------------------|-------2-----------------------------------------|
A|---------------------------------------------------|-------------------------------------------------|
E|-3-----3------3-----3-----3------3-----3-----3-----|-------------------3-----3-----3-----3-----3-----|


[Chorus 2]

   Single note leads with rhythm chords shown above, play 2x

   Em                       C                         G                         D
e|-7--7--5--5--3--3-------|-12-12-10-10--8--8-------|-7-----7-----7-----7-----|-5-----5-----5-----5-----|
B|------------------------|-------------------------|-------------------------|----3-----3-----3-----3--|
G|------------------------|-------------------------|----7p0---7p0---7p0---7p0|-------------------------|
D|-5-----5-----5----------|/10----10----10----------|-------------------------|-4-4-4-4-4-4-4-4-4-4-4-4-|
A|------------------------|-------------------------|-------------------------|-------------------------|
E|------------------------|-------------------------|-------------------------|-------------------------|

  

    Ending
e|-8---7---5---3---2-------|-------------------------|
B|-------------------------|-------------------------|
G|-------------------------|---rest------------------|
D|-7---5---4---2---0-------|-------------------------|
A|-------------------------|-------------------------|
E|-------------------------|-------------------------|



[Bridge]

   E
e|-------3-----------3-----------3-----------3------|
B|---3-------3---3-------3---3-------3---3-------3--|
G|--------------------------------------------------|
D|-2---2-------2---2-------2---2-------2---2--------|
A|--------------------------------------------------|
E|--------------------------------------------------|

   C
e|----------12---10----------12---10----------12---10----------12---10--|
B|----------------------------------------------------------------------|
G|----12---------------12---------------12---------------12-------------|
D|-10----10---------10----10---------10----10---------10----10----------|
A|----------------------------------------------------------------------|
E|----------------------------------------------------------------------|

   G
e|-------7-----------7-----------7-----------7-----|
B|-------------------------------------------------|
G|---7-------7---7-------7---7-------7---7-------7-|
D|-5---5-------5---5-------5---5-------5---5-------|
A|-------------------------------------------------|
E|-------------------------------------------------|

   D
e|--------------------10---------------------------|
B|-10-------10--------10---------------------------|
G|-11-------11--------11---------------------------|
D|-------12-------12-------------------------------|
A|-9--9--9--9--9--9--------------------------------|
E|-------------------------------------------------|



[Chorus 2]

   Single note leads with rhythm chords shown above, play 2x

   Em                       C                         G                         D
e|-7--7--5--5--3--3-------|-12-12-10-10--8--8-------|-7-----7-----7-----7-----|-5-----5-----5-----5-----|
B|------------------------|-------------------------|-------------------------|----3-----3-----3-----3--|
G|------------------------|-------------------------|----7p0---7p0---7p0---7p0|-------------------------|
D|-5-----5-----5----------|/10----10----10----------|-------------------------|-4-4-4-4-4-4-4-4-4-4-4-4-|
A|------------------------|-------------------------|-------------------------|-------------------------|
E|------------------------|-------------------------|-------------------------|-------------------------|

  

    Ending, played 2x
e|-8---7---5---3---2-------|-------------------------|
B|-------------------------|-------------------------|
G|-------------------------|---rest------------------|
D|-7---5---4---2---0-------|-------------------------|
A|-------------------------|-------------------------|
E|-------------------------|-------------------------|


  Piano plays outro

************************************

| h   Hammer-on
| p   Pull-off
| /   Slide up
| \   Slide down

************************************

            
            
Suggest correction
Creating personal tab
Creating personal tab
You can edit any tab online and save it as your Personal.

You can edit, replace or remove any tab part or add personal notes – all changes will be seen only by you.

Personal tabs can be accessed anytime from any device, even offline.
Learn more »
Give kudos to tab author, rate the tab!
1 2 3 4 5
comments
print report bad tab
guest
You may want to rate the tab now too:
select rating
Wanna post a correction for this tab? Suggest correction