Oops, an error
Loading. Please wait.

Wiseman tab

version 2
version 2

Whole song

Interactive

21,690 views 6 this week
no commentswrite comment
1 2 3 4 5
x 7
add to favorites
×
Save as Personal and add changes to this tab that will be seen only by you. Learn more ›
×
You can save this tab as Personal to edit and correct it or add notes. All changes will be seen only by you. Learn more »
launch autoscroll
font size
0
reset
how to read this tab
guitar tuner
edit
Autoscroll
slow
fast
+/-
esc
set tempo
stop
Author
Difficulty
----------------------------------------------------------------------------
                            wisemen - James Blunt
 ----------------------------------------------------------------------------
Tabbed by:Darryl Doyle

Well not much to say, this is for all you people without a capo,
its my 3rd tab which isn't bad for 12 years of age.one of the only james blunt songs i like.

Chords Used-
   E A D G B e

Gm-3 5 5 3 3 6
Dm-# 5 7 7 6 5
F -# 8 101010#
C -8 10109 8 8
D#-# 6 8 8 8 #
Cm-81010 8 8 8
A#-6 8 8 7 6 6
G#-4 6 6 5 4 4


Intro

e|-6----6--5------5-----5---3---------------------------------
B|---8-------6------6---------5-------------------------------x4
G|-----7-------7------5---------5-----------------------------
D|------------------------------------------------------------
A|------------------------------------------------------------
E|------------------------------------------------------------

on 3rd time 2nd gutar plays

   Gm               Dm            F            C
e|------------6-------------5-----------------------------8--------
B|----------3-------------6--------------10-------------8----------
G|--------3-------------7-------------10--------------9-----9h10p9-
D|------5-------------7------------10--------------10--------------
A|----5-------------5------------8--------------10-----------------
E|--3-----------------------------------------8--------------------

This is played for the verse as well

Verse

 Gm              Dm
She said to me, "Go steady on me. 

F                          C
Won't you tell me what the Wise Men said? 

          Gm
When they came down from Heaven, 

 Dm
Smoked nine 'til seven, 

F                  C
All the shit that they could find, 

        Gm
But they  couldn't escape from you,

Dm 
Couldn't be free of you, 

 F                        C
And now they know there's no way out, 


PRE-Chorus

(Strummed)

          A#
And they're really sorry now for what they've done, 

           C
They were three Wise Men just trying to have some fun."

CHORUS

(Strummed)

 Cm           D#
Look who's alone now, 

        A#            F
It's not me. It's not me. 

 Cm              D#  
Those three Wise Men, 

               A#          F
They've got a semi by the sea. 

Cm                G# 
Got to ask yourself the question, 

 A#            F
Where are you now? 

VERSE

(Arpreggioed)

Gm
Really sorry now,

     Dm 
They weren't to know. 

         F                 C
They got caught up in your talent show, 

         Gm                                 Dm
With you pernickety little bastards in your fancy dress, 

         F                     C
Who just judge each other and try to impress, 

         Gm                        
But they couldn't escape from you, 

 Dm                      
Couldn't be free of you, 

F                         C
And now they know there's no way out, 

PRE_CHORUS

(STrummed)

          A#
And they're really sorry now for what they've done, 

           C
They were three Wise Men just trying to have some fun."

CHORUS

(Strummed)

 Cm           D#
Look who's alone now, 

        A#            F
It's not me. It's not me. 

 Cm              D#  
Those three Wise Men, 

               A#          F
They've got a semi by the sea. 

Cm                G# 
Got to ask yourself the question, 

 A#            F
Where are you now? 

Pre-Solo

   Cm          D#       Cm          D#        Cm          D#
e|--------------------------------------------------------------------------
B|--------------------------------------------------------------------------
G|--------------------------------------------------------------------------
D|--------------3---------------------5-3------------------3----------------
A|-3--5-5--x-x-x--3-5----3--5-5-x-x-x-----3----3--5-5-x-x-x--3-5------------
E|--------------------------------------------------------------------------

  Cm
e|--------------------------------------------------------------------------
B|--------------------------------------------------------------------------
G|--------------------------------------------------------------------------
D|--------------------------------------------------------------------------
A|--------------------------------------------------------------------------
E|--4--6-7--9--11--13-14-13-------------------------------------------------


  SOLO 4
Not very accurate sorry 

e|------------------------------------6--4--6b------6p4---6p4---------------
B|------------------------------4--6---------------6----6----6--------------
G|--8b---5-------5-5-5---5--8-----------------------------------------------
D|---------8-8--------------------------------------------------------------
A|--------------------------------------------------------------------------
E|--------------------------------------------------------------------------

e|------------------------------11-11-11/10-10-10/8-8-8/6-6/8---------------
B|--------------------------------------------------------------------------
G|---8b---5-----5-5-5--8-5------8--8--8-/7--7--7-/5-5-5/3-3/5---------------
D|----------8-8-------------------------------------------------------------
A|--------------------------------------------------------------------------
E|--------------------------------------------------------------------------

e|--///13-13-13/-11-/-10-/-8-----13b--11------------------------------------
B|---------------------------------------13--11--13-13----------------------
G|--///10-10-10/-8--/-7--/-5------------------------------------------------
D|--------------------------------------------------------------------------
A|--------------------------------------------------------------------------
E|--------------------------------------------------------------------------

e|--------------------------------------------------------------------------
B|------------------------------------6--4----13-13---13-13~----------------
G|--8b--5-----5-5-5------8-5---10--8----------------------------------------
D|--------8-8--------8-5----------------------------------------------------
A|--------------------------------------------------------------------------
E|--------------------------------------------------------------------------

Outro




(Strummed)

 Cm           D#
Look who's alone now, 

        A#            F
It's not me. It's not me. 

 Cm              D#  
Those three Wise Men, 

               A#          F
They've got a semi by the sea. 

Cm                G# 
Got to ask yourself the question, 

 A#            F
Where are you now? 

Cm                G#
Got to ask yourself the question,

A#             F          Cm      D#
Where are you now?

A#             F          Cm      D#
Where are you now?

A#             F
Where are you now?

  Cm                 G#                       A#           F 
e-------------------------------------------------------------------
B-------------------------------------------------------------------
G--5--------7--8------------------8---10-----------------10---5-----
D-------------------------------------------------------------------
A-------------------------------------------------------------------
E-------------------------------------------------------------------
 Got to ask yourself the question,           Where are you now?


  Cm                 G#                               
e-------------------------------------------||-----------------------------|
B-------------------------------------------||                             |
G--5--------7--8------------------8---10----||                             |
D-------------------------------------------||JUST SINGING- NO INSTRUMENTS |
A-------------------------------------------||                             |
E-------------------------------------------||                             |
 Got to ask yourself the question,          ||    where are you now?       |
                                            ||_____________________________|










| /  slide up
| \  slide down
| h  hammer-on
| p  pull-off
| ~  vibrato
| +  harmonic
| x  Mute note
===============================================================================
Suggest correction
Creating personal tab
Creating personal tab
You can edit any tab online and save it as your Personal.

You can edit, replace or remove any tab part or add personal notes – all changes will be seen only by you.

Personal tabs can be accessed anytime from any device, even offline.
Learn more »
comments
print report bad tab
guest
You may want to rate the tab now too:
select rating
Wanna post a correction for this tab? Suggest correction