Oops, an error
Loading. Please wait.

Youre Beautiful Tab

version 2
version 2
853,253 views 399 this week
32 commentsread comments
1 2 3 4 5
accurate
x 82
add to favorites
launch autoscroll
font size
0
reset
how to read this tab
guitar tuner
Autoscroll
slow
fast
+/-
esc
set tempo
stop
Help us to improve Ultimate-Guitar.com Take our survey!
×
Author
[Intro]

E|----------------------------------------------------------------||
B|------4-3-4---------4-3-4---6---4-3-4---------------------------||
G|-0-------------0---------------------------0--1-----------------|| x2
D|----------------------------------------------------------------||
A|----------------------------------------------------------------||
E|----------------------------------------------------------------||


[Verse]
C
 My life is brilliant 
G
 My love is pure
Am 
 I saw an angel
F
 Of that I'm sure
    C
She smiled at me on the subway
        G
She was with another man
    Am
But I won't lose no sleep on that
       F
'Cause I've got a plan


[Chorus]
F             G
 You're beautiful
C
 You're beautiful
F             G         C
 You're beautiful, it's true
  F        G
I saw your face
     C   G   Am
In a crowded place
      F          G       Am
And I don't know what to do
            F     G       C
'Cause I'll never be with you


[Intro]

E|----------------------------------------------------------------||
B|------4-3-4---------4-3-4---6---4-3-4---------------------------||
G|-0-------------0---------------------------0--1-----------------|| x1
D|----------------------------------------------------------------||
A|----------------------------------------------------------------||
E|----------------------------------------------------------------||

[Verse]
         C
Yes, she caught my eye
      G
As we walked on by
          Am
She could see from my face that I was
F
 Fucking high
    C                       G
And I don't think that I'll see her again
    Am                           F
But we shared a moment that will last to the end


[Chorus]
F             G
 You're beautiful
C
 You're beautiful
F             G         C
 You're beautiful, it's true
  F        G
I saw your face
     C   G   Am
In a crowded place
      F          G       Am
And I don't know what to do
            F     G       C
'Cause I'll never be with you


Am          Am          Am          D
La-la-la-la La-la-la-la La-la-la-la La-a


[Chorus]
F             G
 You're beautiful
C
 You're beautiful
F             G         C
 You're beautiful, it's true
      F          G
There must be an angel
       C        G   Am
With a smile on her face
         F                        G             C   G   Am
When she thought up that I should be with you
         F       G        Am
But it's time to face the truth
        F    G       C
I will never be with you
  
                      
Enjoy!
Hope you like it (Teitur Hnakki :D)
Suggest correction
What's this?
You can suggest a correction to this tab. Community and Mods will review your correction and vote to approve or reject it.
comments
print report bad tab
32 comments total. Showing first comments. show 1 bad comment
+7 reply
lp_guitar_girl 136 wrote on September 3 2005, 12:00 am

your intro is a little wrong its like this instead:

E|-----------------------------|
B|---4-3-4---4-3-4-6-4-3-4-----|
G|-3-------3---------------0-1-|
D|-----------------------------|
A|-----------------------------|
E|-----------------------------|

But otherwise its perfect

0 reply
glenn100 11 wrote on September 22 2005, 09:34 am

hey
I think that's a great song but in the part of the la-la it's go like this F Am F Am F Am Dm
La-la-la-la La-la-la-la La-la-la-la La-a
Glenn

guest
You may want to rate the tab now too:
select rating
Please do not post tabs as comments. Select "correction" instead!