Oops, an error
Loading. Please wait.

Youre Beautiful Tab

version 5
version 5
31,126 views 21 this week
no commentswrite comment
1 2 3 4 5
accurate
x 15
add to favorites
launch autoscroll
font size
0
reset
how to read this tab
guitar tuner
Tab Pro tools
  • play this tab
  • loop segment
  • change instrument
  • show fretboard
  • metronome
×
Best way to learn
"Youre Beautiful"
Autoscroll
slow
fast
+/-
esc
set tempo
stop
Contributor

E|--------------------------------|--------------------------------|
B|--------------------------------|--------------------------------|
G|-1---1-------1-----------1------|--------------------------------|
D|-2-------4---2-------4---2------|-1---1-------1---------1--------|
A|--------------------------------|-2-------4-------2---4-3-----2--|
E|-0-------------0-------------0--|--------------------------------|

E|--------------------------------|-----------------------0--------|
B|--------------------------------|---------------------------4---5|
G|-------------------------------2|---2---1---2-------1------------|
D|-6---6-4---6-------4---6-------2|--------------------------------|
A|-4-------------4-----------4----|-0-------------0----------------|
E|--------------------------------|--------------------------------|

E|--------------------------------|---2----------------------------|
B|-------------------------5-4---5|---------------------5-4-----5--|
G|-------4-------4---------4-4----|---------4-----4-----4---4---4--|
D|-----6-6-----6-------6----------|-------4-----4-------4---4---6--|
A|--------------------------------|-2---------------2--------------|
E|-0---------------0--------------|--------------------------------|

E|--------------------------------|--------------------------------|
B|--------------------------------|--------------------------------|
G|---------4-----4-------------2--|-------2-----2-----------2---2--|
D|-----6-----6---------6----------|---2-------2---------2-----2----|
A|-4-------------4----------------|-0---------------0--------------|
E|--------------------------------|--------------------------------|

E|--------------------------------|--------------------------------|
B|-------0-------0----------------|--------------------------------|
G|---1-------1-------------1---1--|---------4---4---------4--------|
D|---2-----------------2-----2----|-----6-----6---------6-----6----|
A|--------------------------------|-6-------------6---------------4|
E|-0---------------0--------------|--------------------------------|

E|--------------------------------|--------------------------------|
B|-------0-----0------------------|-------0-----0------------------|
G|-----1-----1-----------1-----1--|---1-------1-----------1--------|
D|---2---------------2-------2----|---2---------------2-------2-2-2|
A|---------------4---------------0|-----------------0--------------|
E|--------------------------------|--------------------------------|

E|--------------------------------|--------------------------------|
B|-0-0---0------------------------|-------------------------------0|
G|-1---------------------1-----1-4|---4---4-----4---------4-------1|
D|-------------2-------2-----2----|---6---6---6---------6-------6-2|
A|-------------------------------6|-----------------6-------------4|
E|-0---------------0--------------|--------------------------------|

E|--------------------------------|--------------------------------|
B|---0----------------------------|-0-0---0------------------------|
G|--------------------------------|---1-1-----1-----------1--------|
D|-------------2-------2-----2---2|-------------2-----2---------2--|
A|-----------------4-------------0|-----------------0--------------|
E|--------------------------------|--------------------------------|

E|-------7---4-4-----2------------|-------7-4---4------------------|
B|---5---5-------2-----5----------|---5---5-5---5-----7------------|
G|---6---6---6---2-----------2----|---4---4-4---4---4---4----------|
D|-----------------------2-----2--|---6---------------6---------6--|
A|-0---------------2--------------|--------------------------------|
E|-------------------------------0|-----------------0-----4--------|

E|-------7---4-------------7------|-------------------------------7|
B|---5---5------ 9-------------5--|-------------------------------5|
G|---6---6---6-- 8----------------|-------4-----4---------4-----4-6|
D|---------------7-----7----------|-----2-----2---------2-----2----|
A|-0------------------------------|--------------------------------|
E|-----------------7-------------0|-----------------4--------------|

E|-------4-----------------------7|-------4------------------------|
B|-------5-----5-----------------5|-------4---5-----------5-----4-5|
G|---6---------4-------4-------4--|-4-----4---4---------------6---2|
D|-------------------------4------|-----6-------6-----6-----------2|
A|-0------------------------------|-------6-------4---------------0|
E|---------------7----------------|-0------------------------------|

E|---2---4-----2------------------|--------------------------------|
B|-------------2-----4-------2----|---------------------------2-4-5|
G|--------------------------------|-------4-----4---------4-------2|
D|-----------------------4--------|-----2-------2-----2-----------2|
A|---------------2---------------4|---------------4---------------0|
E|--------------------------------|--------------------------------|

E|---2---4-----2---------------0--|--------------------------------|
B|-------------2-----4---------0--|--------------------------------|
G|-----------------------------1--|-----1---1---1---1---1-1---1----|
D|-----------------------4--------|-----2---2---2---2-2---2---2----|
A|---------------2----------------|-------------------------------0|
E|--------------------------------|-0-------0---0---0---0---0---0--|

E|--------------------------------|--------------------------------|
B|---------2-4---5---4-5----------|---------2-4---5---4-5----------|
G|-----2-------------4-4-----4----|-----2-------------4-4-----4----|
D|-----2---------6---6-6---6---6--|-----2---------6---6-6---6---6--|
A|-----------------4-------------0|-----------------4--------------|
E|--------------------------------|--------------------------------|

E|-------------------------------2|--------------------------------|
B|-------2-----5---4-5-------5---2|---------2---2-----------2---2--|
G|-------2-------4-4-4-------4---2|---------2---2-----------2---2--|
D|---2---------6-----6---6--------|-----2-------2-------2-----2----|
A|-0-------------4----------------|-----------------2--------------|
E|--------------------------------|-2------------------------------|

E|-------7---4-4-----2------------|-------7-4---4------------------|
B|---5---5-------2-----5----------|---5---5-5---5-----7------------|
G|---6---6---6---2-----------2----|---4---4-4---4---4---4----------|
D|-----------------------2-----2--|---6---------------6---------6--|
A|-0---------------2--------------|--------------------------------|
E|-------------------------------0|-----------------0-----4--------|

E|-------7---4-------------7------|-------------------------------7|
B|---5---5------ 9-------------5--|-------------------------------5|
G|---6---6---6-- 8----------------|-------4-----4---------4-----4-6|
D|---------------7-----7----------|-----2-----2---------2-----2----|
A|-0------------------------------|--------------------------------|
E|-----------------7-------------0|-----------------4--------------|

E|-------4-----------------------7|-------4------------------------|
B|-------5-----5-----------------5|-------4---5-----------5-----4-5|
G|---6---------4-------4-------4--|-4-----4---4---------------6---2|
D|-------------------------4------|-----6-------6-----6-----------2|
A|-0------------------------------|-------6-------4---------------0|
E|---------------7----------------|-0------------------------------|

E|---2---4-----2------------------|--------------------------------|
B|-------------2-----4-------2----|---------------------------2-4-5|
G|--------------------------------|-------4-----4---------4-------2|
D|-----------------------4--------|-----2-------2-----2-----------2|
A|---------------2---------------4|---------------4---------------0|
E|--------------------------------|--------------------------------|

E|---2---4-----2-------------0----|-------------------0------------|
B|-------------2-----4-------0----|---------------0----------------|
G|---------------------------1----|---------1----------------------|
D|-----------------------4--------|-----4--------------------------|
A|---------------2----------------|--------------------------------|
E|--------------------------------|-0------------------------------|
comments
print report bad tab
I want to post or [tab]
guest
You may want to rate the tab now too:
select rating
Please do not post tabs as comments. Select "correction" instead!