Oops, an error
Loading. Please wait.

Boss Tab

26,411 views 54 this week
4 commentsread comments
1 2 3 4 5
x 7
add to favorites
launch autoscroll
font size
0
reset
how to read this tab
guitar tuner
×
Best way to learn
"Boss"
Autoscroll
slow
fast
+/-
esc
set tempo
stop
[Main Riff 1]
e|----------------------------8---8---10-----------------------------|
B|------11------9--9---9------9---9---9------------------------------|
G|------10-----10--10--10--------------------------------------------|
D|-------------------------------------------------------------------|
A|-------------------------------------------------------------------|
E|-------------------------------------------------------------------|

e|-------------------------------------------------------------------|
B|------11---9-----9---9----9-----9---9---9--9-----------------------|
G|------10--10-----10--10--10----10--10--10--10----------------------|
D|-------------------------------------------------------------------|
A|-------------------------------------------------------------------|
E|-------------------------------------------------------------------|

[Main Riff 2]
e|-------------------------------------------------------------------|
B|-------------------------------------------------------------------|
G|-------------------------------------------------------------------|
D|-----1--3--3--3--1------3--3--3---1----3---------------------------|
A|---3----------------3----------------3-----------------------------|
E|-------------------------------------------------------------------|

e|-------------------------------------------------------------------|
B|-------------------------------------------------------------------|
G|-------------------------------------------------------------------|
D|-------------------------------------------------------------------|
A|----5--3--5--------------------------------------------------------|
E|-------------------------------------------------------------------|
Suggest correction
comments
print report bad tab
4 comments total. Showing first comments.
0 reply
Chris_Sleeps 170 Apr 21, 2007 12:49 AM

Very good tab indeed.

The riff can be played with an Fm chord already being finger. Don't play the notes in the brackets, just keep them down.


--(8)------------------------8---8---10----------------------------|
--(9)-11------9--9---9------9---9---9------------------------------|
------10-----10--10--10----(10)------------------------------------|
-------------------------------------------------------------------|
-------------------------------------------------------------------|
-------------------------------------------------------------------|

0 reply
goldenseed.seeds 10 3 days ago

👍

guest
You may want to rate the tab now too:
select rating
Wanna post a correction for this tab? Suggest correction