Oops, an error
Loading. Please wait.

Cold Sweat Bass Tab

version 1
version 1

Whole song

Interactive

12,961 views 33 this week
1 commentread comment
1 2 3 4 5
excellent!
x 4
add to favorites
launch autoscroll
font size
0
reset
guitar tuner
Autoscroll
slow
fast
+/-
esc
set tempo
stop
Help us to improve Ultimate-Guitar.com Take our survey!
×
James Brown
Cold Sweat
Author:  AA23
Email:   aceacetwothree@hotmail.com

The timing on this is funky and only approximate because the triplet is
really more swing time.  Listen to the song and it'll be easy.

Riff 1  (Main Riff in verse and Solo)
       Triplet
G -----7--------7-----------------|
D ----------7---------------------|
A 5---5-----------5-------------3-|
E ------------------2---3-3-4-4---|
  1   2   3   4   1   2   3   4
Often the walking bass has notes omitted

Riff 2  (Bridge)
G -----5--------------------------|
D ----------5---------------------|
A 3---3---------3-3---------------|
E ------------------0---1---2-2-3-|
  1   2   3   4   1   2   3   4

Riff 3  (Break)
G --------------------------------|--------------------------------|
D --2---3---4---5-----------------|---3---4---5--------------------|
A --------------------------------|--------------------------------|
E --------------------------------|--------------------3-----------|
  1   2   3   4   1   2   3   4                        Hold this note

This break sounds strange because it's not what the horns are playing
(especially the second time through).


Basic structure...
Intro:  Riff1 (2x)
        Riff1 (8x)
        Riff2 (5x)
        Riff3 (1x)

Suggest correction
What's this?
You can suggest a correction to this tab. Community and Mods will review your correction and vote to approve or reject it.
comments
print report bad tab
1 comment total.
0 reply
PuNk245 88 wrote on January 4 2011, 02:35 am

the parts are wrong, they go like this

G -----7---5------7------------------|
D ------------7----------------------|
A 5---5--------------5-------------3-|
E ---------------------2--3-3-4-4----|

G -----5---3---5--------------------|
D ----------------------------------|
A 3---3-----------3-3---------------|
E -------------------0---1---2-2-3--|

guest
You may want to rate the tab now too:
select rating
Please do not post tabs as comments. Select "correction" instead!