Oops, an error
Loading. Please wait.

Cold Sweat Bass Tab

version 2
version 2

Whole song

Interactive

1,088 views 3 this week
no commentswrite comment
1 2 3 4 5
please rate
add to favorites
launch autoscroll
font size
0
reset
guitar tuner
Autoscroll
slow
fast
+/-
esc
set tempo
stop
Help us to improve Ultimate-Guitar.com Take our survey!
×
Author
Artist: James Brown
Song: Cold Sweat

Tabbed by: Alex Kehoe
www.alexkehoe.co.uk


INTRO
G|--------7--------------------------------|
D|-------------7---7-4---4---45555-7-------|
A|--5--5---------------5------------------3|
E|-----------------------------------------|


VERSE 
x9
G|--------7-5--------------------------|
D|-------------7---7--4---4---45555-7--|
A|--5--5-------------5----------------3|
E|-------------------------------------|


CHORUS
X4
G|-----5---------------------|
D|-------5--5----------------|
A|--3---------3--------------|
E|----------------0---0-11123|

X1
G|----------------------------|
D|--------------8-9-10--------|
A|7-8-9-10--------------------|
E|--------------------------3~|


REPEAT VERSE TWO
X10


CHORUS TWO
X4
G|-----5---------------------|
D|-------5--5----------------|
A|--3---------3--------------|
E|----------------0---0-11123|

X1
G|----------------------------|
D|-----------------8-9-10-----|
A|7--10-9--10-----------------|
E|--------------------------3~|


REPEAT UNTIL END
G|--------7-5---------------------------|
D|-------------7---7--4---4---45555-7---|
A|--5--5----------------5--------------3|
E|--------------------------------------|

| /  slide up
| \  slide down
| h  hammer-on 
| p  pull-off 
| ~  vibrato 
| +  harmonic 
| x  Mute note

Tabbed by: Alex Kehoe
www.alexkehoe.co.uk
Suggest correction
Give kudos to tab author, rate the tab!
1 2 3 4 5
comments
print report bad tab
guest
You may want to rate the tab now too:
select rating
Wanna post a correction for this tab? Suggest correction