Oops, an error
Loading. Please wait.

Get On The Good Foot Bass Tab

5,400 views 9 this week
no commentswrite comment
1 2 3 4 5
please rate
add to favorites
launch autoscroll
font size
0
reset
guitar tuner
Autoscroll
slow
fast
+/-
esc
set tempo
stop
Help us to improve Ultimate-Guitar.com Take our survey!
×
Author
james brown is a king !

main riff
|-----------|
|---3-5-----|
|-5-----3-5-| repeat
|-----------|

bass fill
|-------------------------12-11-10-9-8------12-11-10-9-8-----|
|---------------------------------------12~--------------12~-|
|-5-4-3-2-1---5-4-3-2-1--------------------------------------|
|-----------5~----------5~-----------------------------------|

bridge
|-----------|
|-----------| repeat
|--(5)bend--|
|-----------|

bass fill
|-------------------------12-11-10-9-8------12-11-10-9-8-----|
|---------------------------------------12~--------------12~-|
|-5-4-3-2-1---5-4-3-2-1--------------------------------------|
|-----------5~----------5~-----------------------------------|

bass solo
|--------------------------|
|--------------------------|
|-12--10--12--3h5--1h3-5\\-|
|--------------------------|

main riff
|-----------|
|---3-5-----|
|-5-----3-5-| repeat
|-----------|


Suggest correction
Give kudos to tab author, rate the tab!
1 2 3 4 5
comments
print report bad tab
guest
You may want to rate the tab now too:
select rating
Wanna post a correction for this tab? Suggest correction