Oops, an error
Loading. Please wait.

Get Up I Feel Like A Sex Machine Tab

version 1
version 1

Whole song

Interactive

37,993 views 69 this week
no commentswrite comment
1 2 3 4 5
x 15
add to favorites
launch autoscroll
font size
0
reset
how to read this tab
guitar tuner
Autoscroll
slow
fast
+/-
esc
set tempo
stop
Help us to improve Ultimate-Guitar.com Take our survey!
×
Song: Get Up, I Feel Like A Sexmachine, Parts 1 & 2
Artist: James Brown
Tuning: Standard

This song is basically very simple but great fun to play. 
Its also good practice for improvising funky licks over the top
Have fun


[Intro]

E|-11-11-11-11-11-11-11-11-|
B|-11-11-11-11-11-11-11-11-|
G|-------------------------|
D|-------------------------|
A|-------------------------|
E|-------------------------|


[Verse/Chorus]

E|-x-6--8--6--x---|
B|-x-6--6--6--x---|
G|-x-6--6--6--x---|
D|----------------|
A|----------------|
E|----------------|(repeat as necessary)


[Bridge]

E|-13-13--11-11--9-10-11--|
B|-11-11--11-11--9-10-11--|
G|------------------------|
D|------------------------|
A|------------------------|
E|------------------------|(repeat as necessary)



************************************

| x  Dead note

************************************
Suggest correction
comments
print report bad tab
guest
You may want to rate the tab now too:
select rating
Wanna post a correction for this tab? Suggest correction