Oops, an error
Loading. Please wait.

I Feel Good Bass Tab

version 1
version 1

Whole song

Interactive

86,588 views 204 this week
6 commentsread comments
1 2 3 4 5
excellent!
x 25
add to favorites
launch autoscroll
font size
0
reset
guitar tuner
Autoscroll
slow
fast
+/-
esc
set tempo
stop
Help us to improve Ultimate-Guitar.com Take our survey!
×
I Feel Good
by James Brown
from James Brown Greatest Hits Album
Bass Line Tabbed by Adam Sorini


[VERSE BASS LINE]

G|----7p57p57p57----7--5----|----7p57p57p57----7--5----|------------|
D|------------------------7-|------------------------7-|------------|
A|-5--------------5---------|-5--------------5---------|------------|
E|--------------------------|--------------------------|------------|

G|--------------------------|----7p57p57p57----7--5----|--------------|
D|----5p35p35p35----5--3----|------------------------7-|--------------|
A|------------------------5-|-5--------------5---------|--------------|
E|-3--------------3---------|--------------------------|---5-5---3-3--|

G|-------5-9-|-------------|
D|---4-7-----|repeat once--|
A|-5---------|-------------|
E|-------------------------|


[BRIDGE BASS LINE] arranged for bass, originaly played on horns.

G|-----7-5--5----|----7-5--5-----|
D|---------7-7-3-|--------7-7-3--|
A|-5-------------|-5-------------|
E|---------------|---------------|


[CHORUS BASS LINE]

G|---------------|----------------|---------------|---------------|---------------|---------------|--------|
D|-5-5-3-3-2-2---|-5-5-3-3-2-2----|---------------|---------------|-5-5-3-3-2-2---|-5-5-3-3-2-2---|7-------|
A|------------5-5|------------5-5-|-5-5-3-3-2-2---|-5-5-3-3-2-2---|------------5-5|------------5-5|--------|
E|---------------|----------------|------------5-5|------------5-5|---------------|---------------|--------|


[OUTRO BASS LINE]

G|-------5-9-7-5---------------------------------------------|
D|---4-7---------7-5-----------------------------------------|
A|-5-----------------7~~~~~~~~-5~~~~~~~----------------------|
E|-----------------------------------------------------------|



************************************

| p  Pull-off
| ~  Vibrato

************************************
Suggest correction
comments
print report bad tab
6 comments total. Showing first comments.
+3 reply
slashjr123 26 wrote on September 5 2007, 07:59 am

very nice, thanks, but you're missing a note.

you put:
G-----7-5--5----|----7-5--5----|-
D---------7-7-3-|--------7-7-3-|-
A-5-------------|-5------------|-
E---------------|--------------|-

should be:

G-----7-5--5-------|----7-5--5-------|-
D---------7-7-5- 3-|--------7--7-5-3-|-
A-5----------------|-5---------------|-
E------------------|-----------------|-

+1 reply
d pooter 10 wrote on June 27 2009, 09:22 pm

This tab is amazing. James Brown is still alive!

+2 reply
Cortez192 20 wrote on August 1 2011, 11:24 am

in the the outro instead of


G-------5-9-7-5-------------------------------
D---4-7---------7-5---------------------------
A-5-----------------7~~~~~~~~-5~~~~~~~--------
E---------------------------------------------


it should be


G-------5-9-7-5-------------------------------
D---4-7---------7-5---------------------------
A-5-----------------8~~~~~~~~-5~~~~~~~--------
E---------------------------------------------

guest
You may want to rate the tab now too:
select rating
Wanna post a correction for this tab? Suggest correction