Oops, an error
Loading. Please wait.

I Feel Good Bass Tab

version 1
version 1

Whole song

Interactive

83,942 views 147 this week
6 commentsread comments
1 2 3 4 5
excellent!
x 24
add to favorites
launch autoscroll
font size
0
reset
guitar tuner
Tab Pro tools
  • play this tab
  • loop segment
  • change instrument
  • show fretboard
  • metronome
×
Best way to learn
"I Feel Good"
Autoscroll
slow
fast
+/-
esc
set tempo
stop

I Feel Good 
by James Brown
from James Brown Greatest Hits Album
Bass Line Tabbed by Adam Sorini


  VERSE BASS LINE:
    
G----7p57p57p57----7--5----|----7p57p57p57----7--5----|---------
D------------------------7-|------------------------7-|---------
A-5--------------5---------|-5--------------5---------|-----------
E--------------------------|--------------------------|-------

G--------------------------|----7p57p57p57----7--5----|--------------|
D----5p35p35p35----5--3----|------------------------7-|--------------|
A------------------------5-|-5--------------5---------|--------------|
E-3--------------3---------|--------------------------|---5-5---3-3--|

G-------5-9-|-
D---4-7-----|repeat once-
A-5---------|-
E-----------|

  BRIDGE BASS LINE: arranged for bass, originaly played on horns.

G-----7-5--5----|----7-5--5----|-
D---------7-7-3-|--------7-7-3-|-
A-5-------------|-5------------|-
E---------------|--------------|-

  CHORUS BASS LINE:

G---------|--------|--------|--------|--------|--------|-----
D-553322--|553322--|--------|--------|553322--|553322--|7------
A-------55|------55|553322--|553322--|------55|------55|------
E---------|--------|------55|------55|--------|--------|-----

  OUTRO BASS LINE:

G-------5-9-7-5--------------------------------------------
D---4-7---------7-5----------------------------------------
A-5-----------------7~~~~~~~~-5~~~~~~~-------------------
E------------------------------------------------------
comments
print report bad tab
6 comments total. Showing first comments.
+3 reply
slashjr123 wrote on September 5 2007, 07:59 am

very nice, thanks, but you're missing a note.

you put:
G-----7-5--5----|----7-5--5----|-
D---------7-7-3-|--------7-7-3-|-
A-5-------------|-5------------|-
E---------------|--------------|-

should be:

G-----7-5--5-------|----7-5--5-------|-
D---------7-7-5- 3-|--------7--7-5-3-|-
A-5----------------|-5---------------|-
E------------------|-----------------|-

+1 reply
d pooter wrote on June 27 2009, 09:22 pm

This tab is amazing. James Brown is still alive!

+2 reply
Cortez192 wrote on August 1 2011, 11:24 am

in the the outro instead of


G-------5-9-7-5-------------------------------
D---4-7---------7-5---------------------------
A-5-----------------7~~~~~~~~-5~~~~~~~--------
E---------------------------------------------


it should be


G-------5-9-7-5-------------------------------
D---4-7---------7-5---------------------------
A-5-----------------8~~~~~~~~-5~~~~~~~--------
E---------------------------------------------

I want to post or [tab]
guest
You may want to rate the tab now too:
select rating
Please do not post tabs as comments. Select "correction" instead!