Oops, an error
Loading. Please wait.

I Feel Good Bass Tab

version 2
version 2

Whole song

Interactive

4,654 views 9 this week
no commentswrite comment
1 2 3 4 5
3 more votes to show rating
add to favorites
launch autoscroll
font size
0
reset
guitar tuner
Autoscroll
slow
fast
+/-
esc
set tempo
stop
Help us to improve Ultimate-Guitar.com Take our survey!
×
Author
Difficulty
intermediate
James Brown - I feel Good
Standard Tuning: EADG

A B A B C D   A B C D  A B A B B E


VERSE BASS LINE: A
G----7p57p57p57----7--5----|----7p57p57p57----7--5----|
D------------------------7-|------------------------7-|
A-5--------------5---------|-5--------------5---------|
E--------------------------|--------------------------|

G--------------------------|----7p57p57p57----7--5----|
D----5p35p35p35----5--3----|------------------------7-|
A------------------------5-|-5--------------5---------|
E-3--------------3---------|--------------------------|


Break : B
G-------------5-9-|
D---------4-7-----|
A-------5---------|
E-55-33-----------|


BRIDGE BASS LINE: C
G-----7-5--5----|----7-5--5----|
D---------7-7-3-|--------7-7-3-|
A-5-------------|-5------------|
E---------------|--------------|


CHORUS BASS LINE: D
G---------|--------|--------|--------|--------|--------|------|
D-553322--|553322--|--------|--------|553322--|553322--|------|
A-------55|------55|553322--|553322--|------55|------55|------|
E---------|--------|------55|------55|--------|--------|5-----|


OUTRO BASS LINE: E
G-------5-9-7-5-----------------------|
D---4-7---------7-5-------------------|
A-5-----------------8-(5)-------------|
E-------------------------------------|

Suggest correction
Give kudos to tab author, rate the tab!
1 2 3 4 5
comments
print report bad tab
guest
You may want to rate the tab now too:
select rating
Wanna post a correction for this tab? Suggest correction