Oops, an error
Loading. Please wait.

I Feel Good Bass Tab

version 4
version 4

Whole song

Interactive

2,301 views 3 this week
no commentswrite comment
1 2 3 4 5
please rate
add to favorites
launch autoscroll
font size
0
reset
guitar tuner
Autoscroll
slow
fast
+/-
esc
set tempo
stop
Help us to improve Ultimate-Guitar.com Take our survey!
×
Author
I feel good by: James Brown
Tabbed by: maidenbassist94
tuning: standard (EADG)

START WHEN THE WORD "GOOD" IS SUNG.

G|--------------------------------------------------------------------|
D|-----12H10H12H10H12H10H12---12-10---12H10H12H10H12H10H12---12-10----|
A|----------------------------------12-----------------------------12-|
E|-10----------------------10-----------------------------10----------|

G|-12H10H12H10H12H10H12---12-10----------------------------------|
D|----------------------------------12H10H12H10H12H10H12---12-10-|
A|---------------------10----------------------------------------|
E|-------------------------------10---------------------10-------|

G|----------------------|
D|-----------------8-12-|
A|-10-10-8-8--7-10------|
E|----------8-----------|

G|--------------------------------------------------------------------|
D|-----12H10H12H10H12H10H12---12-10---12H10H12H10H12H10H12---12-10----|
A|----------------------------------12-----------------------------12-|
E|-10----------------------10-----------------------------10----------|

G|-12H10H12H10H12H10H12---12-10----------------------------------|
D|----------------------------------12H10H12H10H12H10H12---12-10-|
A|---------------------10----------------------------------------|
E|-------------------------------10---------------------10-------|

G|----------------------R---------------------------------|
D|-----------------8-12-R---------------------------------|
A|-10-10-8-8--7-10------R-8-7-6-5-8-7-6-5-8-7-6-5-8-7-6-5-|
E|----------8-----------R---------------------------------|

G|-------------------------------------------------R-|
D|-------------------------------------------------R-|
A|--------------------------------8-7-6--5-8-7-6-5-R-|
E|8-7-6-5-8-7-6-5-8-7-6-5-8-7-6-5------------------R-|

G|--------------------------------------------------------------------|
D|-----12H10H12H10H12H10H12---12-10---12H10H12H10H12H10H12---12-10----|
A|----------------------------------12-----------------------------12-|
E|-10----------------------10-----------------------------10----------|

G|-12H10H12H10H12H10H12---12-10----------------------------------|
D|----------------------------------12H10H12H10H12H10H12---12-10-|
A|---------------------10----------------------------------------|
E|-------------------------------10---------------------10-------|

G|----------------------R---------------------------------|
D|-----------------8-12-R---------------------------------|
A|-10-10-8-8--7-10------R-8-7-6-5-8-7-6-5-8-7-6-5-8-7-6-5-|
E|----------8-----------R---------------------------------|

G|-------------------------------------------------R-|
D|-------------------------------------------------R-|
A|--------------------------------8-7-6--5-8-7-6-5-R-|
E|8-7-6-5-8-7-6-5-8-7-6-5-8-7-6-5------------------R-|

G|--------------------------------------------------------------------|
D|-----12H10H12H10H12H10H12---12-10---12H10H12H10H12H10H12---12-10----|
A|----------------------------------12-----------------------------12-|
E|-10----------------------10-----------------------------10----------|

G|-12H10H12H10H12H10H12---12-10----------------------------------|
D|----------------------------------12H10H12H10H12H10H12---12-10-|
A|---------------------10----------------------------------------|
E|-------------------------------10---------------------10-------|

G|----------------------|
D|-----------------8-12-|
A|-10-10-8-8--7-10------|
E|----------8-----------|

G|--------------------------------------------------------------------|
D|-----12H10H12H10H12H10H12---12-10---12H10H12H10H12H10H12---12-10----|
A|----------------------------------12-----------------------------12-|
E|-10----------------------10-----------------------------10----------|

G|-12H10H12H10H12H10H12---12-10----------------------------------|
D|----------------------------------12H10H12H10H12H10H12---12-10-|
A|---------------------10----------------------------------------|
E|-------------------------------10---------------------10-------|

G|----------------------------------------------------------------|
D|-----------------8-12-----------------8-12-----------------8-12-|
A|-10-10-8-8--7-10------10-10-8-8--7-10------10-10-8-8--7-10------|
E|----------8--------------------8--------------------8-----------|

G|------------|
D|-10-8-------|
A|-----10-7~--|
E|----------8-|

ANY CORRECTIONS ARE WELCOME JUST PM MY ULTIMATE GUITAR PROFILE :)
Suggest correction
What's this?
You can suggest a correction to this tab. Community and Mods will review your correction and vote to approve or reject it.
comments
We did not receive enough feedback on this tab! Please rate:
print report bad tab
1 2 3 4 5
guest
You may want to rate the tab now too:
select rating
Please do not post tabs as comments. Select "correction" instead!