Oops, an error
Loading. Please wait.

I Feel Good Bass Tab

version 5
version 5

Whole song

Interactive

2,289 views 3 this week
no commentswrite comment
1 2 3 4 5
2 more votes to show rating
add to favorites
launch autoscroll
font size
0
reset
guitar tuner
Autoscroll
slow
fast
+/-
esc
set tempo
stop
Help us to improve Ultimate-Guitar.com Take our survey!
×
Author
Artist: James Brown
Song: Feel Good

Tabbed by: Alex Kehoe
www.alexkehoe.co.uk

VERSE
X2
G|---7-5-7-5-7-5-7---7---5--|
D|-------------------------7|
A|5----------------5--------|
E|--------------------------|

X1
G|----------------------------|
D|--5-3-5-3-5-3-5----5---3----|
A|---------------------------3|
E|3---------------3-----------|

X1
G|---7-5-7-5-7-5-7---7---5--|
D|-------------------------7|
A|5---------------5---------|
E|--------------------------|

G|------------------------------------5--------9|
D|-7--7-----5--5--------4----7------------------|
A|-----------------5----------------------------|
E|----------------------------------------------|

REPEAT VERSE


BRIDGE
x2
G|---7---5----5---------|
D|----------7---7-------|
A|5------------------7~-|
E|----------------------|

CHORUS
x1
G|-----------------------------------------------------------|
D|553322----553322----------------------553322---553322-----7|
A|-------55--------55553322----553322----------55--------55--|
E|--------------------------55-------55----------------------|

REPEAT VERSE
REPEAT BRIDGE
REPEAT CHORUS 
REPEAT VERSEx2


OUTRO
G|------------------------------------5--------9|
D|-7--7-----5--5--------4----7------------------|
A|-----------------5----------------------------|
E|----------------------------------------------|

G|------------------------------------5--------9----7----5------------------------------|
D|-7--7-----5--5--------4----7------------------------------7----5----3-----------------|
A|-----------------5----------------------------------------------------5555555555555555|
E|--------------------------------------------------------------------------------------|


| /  slide up
| \  slide down
| h  hammer-on 
| p  pull-off 
| ~  vibrato 
| +  harmonic 
| x  Mute note

Tabbed by: Alex Kehoe
www.alexkehoe.co.uk
Suggest correction
Give kudos to tab author, rate the tab!
1 2 3 4 5
comments
print report bad tab
guest
You may want to rate the tab now too:
select rating
Wanna post a correction for this tab? Suggest correction